Guitar Tabs
song title    band name

Join Us Today!

Don't strum alone...
be a part of the largest online Christian music community. Browse thousands of guitar tabs and chat w/ musicians like yourself.


It's Free!

This tab has not yet been rated for accuracy.Sorry, but you must be logged in to rate this tab.
Click here to log-in, or you can click here to register.
(Registration is free)

All songs owned by corresponding publishing company. If you make copies of any song on this website, be sure to report your usage to CCLI.
Submitted by: jakesnake

Song: Gone
Artist: tobyMac

whats up guys this is my first tab and i thought the other ones were a little 
bit to deep. let me know wat u think about it. if you notice any mistakes go 
ahead and correct it.

 E---9-8-9-8-9-8-9-8---13------------------------13--------14--13-------11
 B------------------------14------------------------14-------------14----
 G---------------------------13--11--13--10--13---------13---------------
 D-----------------------------------------------------------------------
 A-----------------------------------------------------------------------
 E----------------------------------------------------------------------- 

 E--13------------------------13-----13-----13-----13--------------------
 B-----14------------------------14-----14-----14------14----------------
 G--------13--11--13--10--13---------------------------------------------
 D-----------------------------------------------------------------------
 A-----------------------------------------------------------------------
 E-----------------------------------------------------------------------
  ok thats it im sure this is right. if you have any questions about it
  email me at hustonx8@netzero.net

Comments about this tab

No comments/corrections found. Add your own

Complimentary Christian Ringtones
Dadamobile and CGR have teamed up to bring your favorite Christian artists right to your phone. Sign up today and get 10 complementary ringtones!
Tab Country
Did you know CGR has a sister site w/ country guitar tabs? Well we do! Its called Tab Country. It has a great archive with a lot of country tabs.
Rockin Tabs
Are you looking for a site that has rock guitar tabs? Then Rockintabs.com is the place for you. It is a budding site with many rock guitar tabs. Submit your tab today.
Tab Gallery
Tab Gallery has a compilation of christian, rock, and country tabs all in one place. Come visit us.