Guitar Tabs
song title    band name

Join Us Today!

Don't strum alone...
be a part of the largest online Christian music community. Browse thousands of guitar tabs and chat w/ musicians like yourself.


It's Free!

This tab has not yet been rated for accuracy.Sorry, but you must be logged in to rate this tab.
Click here to log-in, or you can click here to register.
(Registration is free)

All songs owned by corresponding publishing company. If you make copies of any song on this website, be sure to report your usage to CCLI.
Submitted by: PowerChordguy07

Stars Tab by Switchfoot, www.Ultimate-Guitar.Com

Switchfoot - Stars *3rd update*
Tabbed by - Miko Savady

**Drop-D tuning**
Just follow the song to get the strumming pattern
Follow Gtr1 to play the acoustic version. Just replace 
 the (x577--) in the verse with (00032x)

***********************************************************************************
Acoustic version Intro
e|-----2---0--------2---0----------3---0------------------------------------------|
B|-----3-----3------3-----3--------2-----3----------------------------------------|
G|-----2-------2----0-------0------0----------------------------------------------|
D|-----0------------0--------------0-------2---2/4--4h5-4-4\2-0-----0-------------|
A|-----0------------0--------------3-------0---0----0---0-0-------4---0-----------|
D|--------------------------------------------------------------0-------0---------|

e|--------------------------------------------------------------------------------|
B|--------------------------------------------------------------------------------|
G|--------------------------------------------------------------------------------|
D|-----2/4--4h5-4-4\2-0-----0-----------------------------------------------------|
A|-----0----0---0-0-------4---0---------------------------------------------------|
E|----------------------0-------0-------------------------------------------------|

***********************************************************************************

*Intro
Gtr 1,2,3
e|--------------------------------------------------------------------------------|
B|--------------------------------------------------------------------------------|
G|-------6-7-----11------9-----131614-----6-7-----11------9---9-9-9---------------|
D|-0-0-0-x-x-0-0-x-0-0-0-x-0-0-x-x-x--0-0-x-x-0-0-x-0-0-0-x-0-x-x-x---------------|
A|-0-0-0-4-5-0-0-9-0-0-0-7-0-0-111412-0-0-4-5-0-0-9-0-0-0-7-0-7-7-7---------------|
D|-0-0-0-----0-0---0-0-0---0-0--------0-0-----0-0---0-0-0---0---------------------|



Gtr 1,2,3
e|--------------------------------------------------------------------------------|
B|--------------------------------------------------------------------------------|
G|---6---6-7-----11------9-----131614-----6-7-----11------9---9-9-9---------------|
D|-0-x-0-x-x-0-0-x-0-0-0-x-0-0-x-x-x--0-0-x-x-0-0-x-0-0-0-x-0-x-x-x---------------|
A|-0-4-0-4-5-0-0-9-0-0-0-7-0-0-111412-0-0-4-5-0-0-9-0-0-0-7-0-7-7-7---------------|
D|-0---0-----0-0---0-0-0---0-0--------0-0-----0-0---0-0-0---0---------------------|



**Sequence 1
Gtr 1,2,3
e|--------------------------------------------------------------------------------|
B|--------------------------------------------------------------------------------|
G|-------6-7-----11------9-----6-7--------5-6-----11------9--9-9-9----------------|
D|-0-2-0-x-x-0-7-x-0-4-5-x-0-2-x-x--0-2-0-x-x-0-7-x-0-4-5-x--x-x-x----------------|2x
A|-0-2-0-4-5-0-7-9-0-4-5-7-0-2-4-5--0-2-0-4-5-0-7-9-0-4-5-7--7-7-7----------------|
D|-0-2-0-----0-7---0-4-5---0-2------0-2-0-----0-7---0-4-5-------------------------|



*Verse 1
Gtr 1
e|--------------------------------------------------------------------------------|
B|--------------------------------------------------------------------------------|
G|-7------------------------------------7-------------7---------------------------|
D|-7------------------------------------7-------------7---------------------------|
A|-5------------------------------------5-------------5---------------------------|
D|-x------------------------------------5-------------x---------------------------|
Gtr 2
e|-x--------------------------------------------------x---------------------------|
B|-3--------------------------------------------------3---------------------------|
G|-2--------------------------------------------------2---------------------------|
D|-0------------------------------------5-------------0---------------------------|
A|-0------------------------------------5-------------0---------------------------|
D|-0------------------------------------5-------------0---------------------------|
    Maybe I've been the problem, maybe I'm the one to blame

Gtr 1
e|--------------------------------------------------------------------------------|
B|--------------------------------------------------------------------------------|
G|------------------12--------------7-----------------7-----------------6---------|
D|------------------12--------------7-----------------7-----------------7---------|
A|------------------10--------------5-----------------7-----------------7---------|
D|------------------10--------------5-----------------7-----------------7---------|
Gtr 2
e|--------------------------------------------------------------------------------|
B|--------------------------------------------------------------------------------|
G|----------------------------------------------------7-----------------6---------|
D|------------------10--------------5-----------------7-----------------7---------|
A|------------------10--------------5-----------------7-----------------7---------|
D|------------------10--------------5-----------------7-----------------7---------|
    But even when I turn it off and blame myself, the outcome feels the same


Gtr 1
e|--------------------------------------------------------------------------------|
B|--------------------------------------------------------------------------------|
G|--------------------------7------------------------------7-----------------7----|
D|--------------------------7------------------------------7-----------------7----|
A|--------------------------5------------------------------5-----------------5----|
D|--------------------------x------------------------------5-----------------x----|
Gtr 2
e|--------------------------x------------------------------------------------x----|
B|--------------------------3------------------------------------------------3----|
G|--------------------------2------------------------------------------------2----|
D|--------------------------0------------------------------5-----------------0----|
A|--------------------------0------------------------------5-----------------0----|
D|--------------------------0------------------------------5-----------------0----|
Gtr 3
e|--------------------------------------------------------------------------------|
B|------------------------------------------------------------------------15------|
G|--------------------------14-------------------------------------16-----x---14--|
D|--------------------------x--------------------------------------x------12--x---|
A|--------------------------12-------------------------------------14---------12--|
D|--------------------------------------------------------------------------------|
    
Gtr 1
e|--------------------------------------------------------------------------------|
B|--------------------------------------------------------------------------------|
G|----------------12-----------7-----------------7-----------------6--------------|
D|----------------12-----------7-----------------7-----------------7--------------|
A|----------------10-----------5-----------------7-----------------7--------------|
D|----------------10-----------5-----------------7-----------------7--------------|
Gtr 2
e|--------------------------------------------------------------------------------|
B|--------------------------------------------------------------------------------|
G|-----------------------------------------------7-----------------6--------------|
D|----------------10-----------5-----------------7-----------------7--------------|
A|----------------10-----------5-----------------7-----------------7--------------|
D|----------------10-----------5-----------------7-----------------7--------------|
Gtr 3
e|--------------------------------------------------------------------------------|
B|------------15--13--------------------------------------------------------------|
G|-16---------x---x------------12----------------9--------------------------------|
D|-x----------12--10-----------x-----------------x--------------------------------|
A|-14--------------------------10----------------7--------------------------------|
D|--------------------------------------------------------------------------------|
    


Gtr 1,2,3
e|--------------------------------------------------------------------------------|
B|--------------------------------------------------------------------------------|
G|--------------------------------------------------------------------------------|
D|--------------------------7---------9-----------------11--------12--------------|
A|--------------------------5---------7-----------------9---------10--------------|
D|--------------------------5---------7-----------------9---------10--------------|
   
*Chorus
Gtr 1
e|-------------------------x------------------------------------------------------|
B|-------------------------3------------------------------------------------------|
G|-------------------------2---------------------------7--------------------------|
D|-------------------------0---------------------------7--------------------------|
A|-------------------------0---------------------------5--------------------------|
D|-------------------------0---------------------------5--------------------------|
Gtr 2
e|--------------------------------------------------------------------------------|
B|--------------------------------------------------------------------------------|
G|-------------------------119-7-2---------------------119-7----------------------|
D|-------------------------x-x-x-0---------------------x-x-x-5--------------------|
A|-------------------------9-7-5-0---------------------9-7-5-5--------------------|
D|-----------------------------------------------------------5--------------------|
    


Gtr 1
e|--------------------------------------------------------------------------------|
B|--------------------------------------------------------------------------------|
G|--------------------12----7-------------------------6-7-----11------9--9-9-9----|
D|--------------------12----7-------------------0-2-0-x-x-0-7-x-0-4-5-x--x-x-x----|
A|--------------------10----5-------------------0-2-0-4-5-0-7-9-0-4-5-7--7-7-7----|
D|--------------------10----5-------------------0-2-0-----0-7---0-4-5-------------|
Gtr 2
e|--------------------------------------------------------------------------------|
B|--------------------------------------------------------------------------------|
G|--------------------119-7---------------------------6-7-----11------9--9-9-9----|
D|--------------------x-x-x-5-------------------0-2-0-x-x-0-7-x-0-4-5-x--x-x-x----|
A|--------------------9-7-5-5-------------------0-2-0-4-5-0-7-9-0-4-5-7--7-7-7----|
D|--------------------------5-------------------0-2-0-----0-7---0-4-5-------------|
   
Gtr 1
e|--------------------------------------------------------------------------------|
B|--------------------------------------------------------------------------------|
G|--7------------4-----7----------------------------------------------------------|
D|--7------------4-----7-----------------***Play-Sequence-1-once***---------------|
A|--5------------2-----7----------------------------------------------------------|
D|--5------------2-----7----------------------------------------------------------|
Gtr 2
e|--------------------------------------------------------------------------------|
B|--------------------------------------------------------------------------------|
G|--119-7--------119-7-7----------------------------------------------------------|
D|--x-x-x-5------x-x-x-7-----------------***Play-Sequence-1-once***---------------|
A|--9-7-5-5------9-7-5-7----------------------------------------------------------|
D|--------5------------7----------------------------------------------------------|
    


*Verse 2
Gtr 1
e|--------------------------------------------------------------------------------|
B|--------------------------------------------------------------------------------|
G|-7--------------------------------------7-----------7---------------------------|
D|-7--------------------------------------7-----------7---------------------------|
A|-5--------------------------------------5-----------5---------------------------|
D|-x--------------------------------------5-----------x---------------------------|
Gtr 2
e|-x--------------------------------------------------x---------------------------|
B|-3--------------------------------------------------3---------------------------|
G|-2--------------------------------------------------2---------------------------|
D|-0--------------------------------------5-----------0---------------------------|
A|-0--------------------------------------5-----------0---------------------------|
D|-0--------------------------------------5-----------0---------------------------|
Gtr 3
e|--------------------------------------------------------------------------------|
B|------------------------------------------------15------------------------------|
G|-14------------------------------------------16-x---14--------------------------|
D|-x-------------------------------------------x--12--x---------------------------|
A|-12------------------------------------------14-----12--------------------------|
D|--------------------------------------------------------------------------------|
    

Gtr 1
e|--------------------------------------------------------------------------------|
B|--------------------------------------------------------------------------------|
G|---------------------12-------------7--------------7-----------------6----------|
D|---------------------12-------------7--------------7-----------------7----------|
A|---------------------10-------------5--------------7-----------------7----------|
D|---------------------10-------------5--------------7-----------------7----------|
Gtr 2
e|--------------------------------------------------------------------------------|
B|--------------------------------------------------------------------------------|
G|---------------------------------------------------7-----------------6----------|
D|---------------------10-------------5--------------7-----------------7----------|
A|---------------------10-------------5--------------7-----------------7----------|
D|---------------------10-------------5--------------7-----------------7----------|
Gtr 3
e|--------------------------------------------------------------------------------|
B|------------15-------13---------------------------------------------------------|
G|-16---------x--------x--------------12-------------9----------------------------|
D|-x----------12-------10-------------x--------------x----------------------------|
A|-14---------------------------------10-------------7----------------------------|
D|--------------------------------------------------------------------------------|
   


Gtr 1
e|--------------------------------------------------------------------------------|
B|--------------------------------------------------------------------------------|
G|------------------------------7---------------------------7--------------7------|
D|------------------------------7---------------------------7--------------7------|
A|------------------------------5---------------------------5--------------5------|
D|------------------------------x---------------------------5--------------x------|
Gtr 2
e|------------------------------x------------------------------------------x------|
B|------------------------------3------------------------------------------3------|
G|------------------------------2------------------------------------------2------|
D|------------------------------0---------------------------5--------------0------|
A|------------------------------0---------------------------5--------------0------|
D|------------------------------0---------------------------5--------------0------|
Gtr 3
e|--------------------------------------------------------------------------------|
B|----------------------------------------------------------------------15--------|
G|------------------------------14---------------------------------16---x--14-----|
D|------------------------------x----------------------------------x----12-x------|
A|------------------------------12---------------------------------14------12-----|
D|--------------------------------------------------------------------------------|
   

Gtr 1
e|--------------------------------------------------------------------------------|
B|--------------------------------------------------------------------------------|
G|-------------------12-----------7----------7----------------6-------------------|
D|-------------------12-----------7----------7----------------7-------------------|
A|-------------------10-----------5----------7----------------7-------------------|
D|-------------------10-----------5----------7----------------7-------------------|
Gtr 2
e|--------------------------------------------------------------------------------|
B|--------------------------------------------------------------------------------|
G|-------------------------------------------7----------------6-------------------|
D|-------------------10-----------5----------7----------------7-------------------|
A|-------------------10-----------5----------7----------------7-------------------|
D|-------------------10-----------5----------7----------------7-------------------|
Gtr 3
e|--------------------------------------------------------------------------------|
B|------------15-----13-----------------------------------------------------------|
G|-16---------x------x------------12---------9------------------------------------|
D|-x----------12-----10-----------x----------x------------------------------------|
A|-14-----------------------------10---------7------------------------------------|
D|--------------------------------------------------------------------------------|
    


Gtr 1,2,3
e|--------------------------------------------------------------------------------|
B|--------------------------------------------------------------------------------|
G|--------------------------------------------------------------------------------|
D|--------------------------7---------9-----------------11--------12--------------|
A|--------------------------5---------7-----------------9---------10--------------|
D|--------------------------5---------7-----------------9---------10--------------|
    
*Chorus
Gtr 1
e|-------------------------x------------------------------------------------------|
B|-------------------------3------------------------------------------------------|
G|-------------------------2---------------------------7--------------------------|
D|-------------------------0---------------------------7--------------------------|
A|-------------------------0---------------------------5--------------------------|
D|-------------------------0---------------------------5--------------------------|
Gtr 2
e|--------------------------------------------------------------------------------|
B|--------------------------------------------------------------------------------|
G|-------------------------119-7-2---------------------119-7----------------------|
D|-------------------------x-x-x-0---------------------x-x-x-5--------------------|
A|-------------------------9-7-5-0---------------------9-7-5-5--------------------|
D|-----------------------------------------------------------5--------------------|
    


Gtr 1
e|--------------------------------------------------------------------------------|
B|--------------------------------------------------------------------------------|
G|--------------------12----7-------------------------6-7-----11------9--9-9-9----|
D|--------------------12----7-------------------0-2-0-x-x-0-7-x-0-4-5-x--x-x-x----|
A|--------------------10----5-------------------0-2-0-4-5-0-7-9-0-4-5-7--7-7-7----|
D|--------------------10----5-------------------0-2-0-----0-7---0-4-5-------------|
Gtr 2
e|--------------------------------------------------------------------------------|
B|--------------------------------------------------------------------------------|
G|--------------------119-7---------------------------6-7-----11------9--9-9-9----|
D|--------------------x-x-x-5-------------------0-2-0-x-x-0-7-x-0-4-5-x--x-x-x----|
A|--------------------9-7-5-5-------------------0-2-0-4-5-0-7-9-0-4-5-7--7-7-7----|
D|--------------------------5-------------------0-2-0-----0-7---0-4-5-------------|
    
Gtr 1
e|--------------------------------------------------------------------------------|
B|--------------------------------------------------------------------------------|
G|--7------------4-----7----------------------------------------------------------|
D|--7------------4-----7-----------------------------***Play-Sequence-1-once***---|
A|--5------------2-----7----------------------------------------------------------|
D|--5------------2-----7----------------------------------------------------------|
Gtr 2
e|--------------------------------------------------------------------------------|
B|--------------------------------------------------------------------------------|
G|--119-7--------119-7-7----------------------------------------------------------|
D|--x-x-x-5------x-x-x-7-----------------------------***Play-Sequence-1-once***---|
A|--9-7-5-5------9-7-5-7----------------------------------------------------------|
D|--------5------------7----------------------------------------------------------|
    

Gtr 1,2,3
e|--------------------------------------------------------------------------------|
B|--------------------------------------------------------------------------------|
G|--7--6--6--------6-7-----11------9--9-9-9--7--6--6------------------------------|
D|--7--7--x--0-2-0-x-x-0-7-x-0-4-5-x--x-x-x--7--7--x------------------------------|
A|--5--4--7--0-2-0-4-5-0-7-9-0-4-5-7--7-7-7--5--4--7------------------------------|
D|--5--4--7--0-2-0-----0-7---0-4-5-----------5--4--7------------------------------|
   

Gtr 1,2,3
e|--------------------------------------------------------------------------------|
B|--------------------------------------------------------------------------------|
G|------------------------------------4-------------------------------------------|
D|-7---------9-----------------7------x---7-------------9-----------------11---12-|
A|-5---------7-----------------4------5---5-------------7-----------------9----10-|
D|-5---------7-----------------4------5---5-------------7-----------------9----10-|
  

Gtr 1,2,3
e|--------------------------------------------------------------------------------|
B|--------------------------------------------------------------------------------|
G|--------------------------------------------------------------------------------|
D|--------------------------------------------------------------------------------|
A|--------------------------------------------------------------------------------|
D|--------------------------------------------------------------------------------|
   


Gtr 1
e|--------------------------------------------------------------------------------|
B|--------------------------------------------------------------------------------|
G|--------------------12----7-------------------------6-7-----11------9-----------|
D|--------------------12----7-------------------0-2-0-x-x-0-7-x-0-4-5-x-2-2-2-----|
A|--------------------10----5-------------------0-2-0-4-5-0-7-9-0-4-5-7-2-2-2-----|
D|--------------------10----5-------------------0-2-0-----0-7---0-4-5---2-2-2-----|
Gtr 2
e|--------------------------------------------------------------------------------|
B|--------------------------------------------------------------------------------|
G|----------------------------------------------------6-7-----11------9-----------|
D|--------------------10----5-------------------0-2-0-x-x-0-7-x-0-4-5-x-2-2-2-----|
A|--------------------10----5-------------------0-2-0-4-5-0-7-9-0-4-5-7-2-2-2-----|
D|--------------------10----5-------------------0-2-0-----0-7---0-4-5---2-2-2-----|
   


Gtr 1,2,3
e|--------------------------------------------------------------------------------|
B|--------------------------------------------------------------------------------|
G|-7------------4-----7-----------------------------------------------------------|
D|-7------------4-----7-----------------------------------------------------------|
A|-5------------2-----7-----------------------------------------------------------|
D|-5------------2-----7-----------------------------------------------------------|
   



Gtr 1,2,3
e|--------------------------------------------------------------------------------|
B|--------------------------------------------------------------------------------|
G|-------------------6-7-----11------9-----6-7--------6-7-----11------9--9-9-9----|
D|-------------0-2-0-x-x-0-7-x-0-4-5-x-0-2-x-x--0-2-0-x-x-0-7-x-0-4-5-x--x-x-x----|
A|-------------0-2-0-4-5-0-7-9-0-4-5-7-0-2-4-5--0-2-0-4-5-0-7-9-0-4-5-7--7-7-7----|
D|-------------0-2-0-----0-7---0-4-5---0-2------0-2-0-----0-7---0-4-5-------------|
                                                               


Gtr 1
e|--------------------------------------------------------------------x-----------|
B|--------------------------------------------------------------------3-----------|
G|-------6-7-----11------9-----6-7--------6-7-----11------9-----6-7---2-----------|
D|-0-2-0-x-x-0-7-x-0-4-5-x-0-2-x-x--0-2-0-x-x-0-7-x-0-4-5-x-0-2-x-x---0-*ring-out*|
A|-0-2-0-4-5-0-7-9-0-4-5-7-0-2-4-5--0-2-0-4-5-0-7-9-0-4-5-7-0-2-4-5---0-----------|
D|-0-2-0-----0-7---0-4-5---0-2------0-2-0-----0-7---0-4-5---0-2-------0-----------|
Gtr 2
e|--------------------------------------------------------------------------------|
B|--------------------------------------------------------------------------------|
G|-------6-7-----11------9-----6-7--------6-7-----11------9-----6-7---7-----------|
D|-0-2-0-x-x-0-7-x-0-4-5-x-0-2-x-x--0-2-0-x-x-0-7-x-0-4-5-x-0-2-x-x---x-*ring-out*|
A|-0-2-0-4-5-0-7-9-0-4-5-7-0-2-4-5--0-2-0-4-5-0-7-9-0-4-5-7-0-2-4-5---5-----------|
D|-0-2-0-----0-7---0-4-5---0-2------0-2-0-----0-7---0-4-5---0-2-------0-----------|
Gtr 3
e|-x-----x---------x-----x----------x-------x-----x--x------x---x-----x-----------|
B|-x-----x---------17----15---------x-------x-----x--15-----x---x-----x-----------|
G|-16----14--------x-----x----------14------12----11-x------12--12\11-11----------|
D|-x-----x---------14----12---------x-------x-----x--12-----x---x-----x-*ring-out*|
A|-14----12--------x-----x----------12------10----9--x------10--10\9--9-----------|
D|-x-----x---------x-----x----------x-------x-----x--x------x---x-----0-----------|

Comments about this tab

No comments/corrections found. Add your own

Complimentary Christian Ringtones
Dadamobile and CGR have teamed up to bring your favorite Christian artists right to your phone. Sign up today and get 10 complementary ringtones!
Tab Country
Did you know CGR has a sister site w/ country guitar tabs? Well we do! Its called Tab Country. It has a great archive with a lot of country tabs.
Rockin Tabs
Are you looking for a site that has rock guitar tabs? Then Rockintabs.com is the place for you. It is a budding site with many rock guitar tabs. Submit your tab today.
Tab Gallery
Tab Gallery has a compilation of christian, rock, and country tabs all in one place. Come visit us.