Guitar Tabs
song title    band name

Join Us Today!

Don't strum alone...
be a part of the largest online Christian music community. Browse thousands of guitar tabs and chat w/ musicians like yourself.


It's Free!

This tab has been rated a 2.50 out of 5 for accuracy. (2 votes)Sorry, but you must be logged in to rate this tab.
Click here to log-in, or you can click here to register.
(Registration is free)

All songs owned by corresponding publishing company. If you make copies of any song on this website, be sure to report your usage to CCLI.
Submitted by: surferdude9375

You Are My Joy
By: David Crowder Band
CD: A Collision

Tuned to Eb
Right and Left = which side you pan the speakers to to hear the part.

David Verse:
  	
--0---0---------   ------------
--1--10------1--   --1----1----
--2---9---9--2--   --0^2--2^0--
--2--10--10--3--   --3----3----
--0---0---0--x--   --x----x----
-------------1--   --1----1----

David Pre-Chorus:
  	
--0-----------------
--0--1--0----1---0--
--0--2--0--0^2---9--
--2--2--0----3--10--
--2--0--2----x---x--
--0-----3----1---8--

David Chorus:
  	
-----------
--1--1--0--
--2--0--0--
--3--2--0--
--x--3--2--
--1--------

David Break:
  	
---0--0--0--   ---0--
---0--8--7--   ---0--
---9--6--8--   ---9--
--10--8--9--   --10--
---x--x--x--   ---x--
---8--6--7--   ---8--

David Out:
  	
--------
--1--1--
--2--0--
--3--2--
--x--3--
--1-----

Jack Verse:
  	
Left (octafuzz):

-------
-------
-------
-------
--0----
----1--

Right:

--0--0--
--1--1--
--2--2--
--2--3--
--0--3--
-----1--

Jack Pre-Chorus
  	

Left (octafuzz):

-----
-----
-----
-----
-----
--0--

Right:

--0----------------
--0----------------
--0----2----0---0--
--2---2-2--0-0--3--
--2--0----------3--
--0-------3-----1--

Jack Chorus:
  	

Left:

----------------------
--13-8-12-8-13-15-13--
----------------------
----------------------
----------------------
----------------------

Right:

--12--12--10--10--12--12--13--13--15--15--15--15----
----13--13--13--13--13--13--13--13--13--13--13--13--
----------------------------------------------------
----------------------------------------------------
----------------------------------------------------
----------------------------------------------------

Jack Turn (pitch shifter):
  	
---------
-----10--
------x--
------7--
--0------
---------


Jack Break -1st part:
  	
Left:

------------------------------------
--8--5--------------------7--12-----
--x--x--5--3--6-----4--8--x---x--5--
--5--2--x--x--x--4--x--x--4---9--x--
--------3--1--4--x--2--6---------3--
-----------------2------------------

Right:

-----------------------------------
-----------------------------------
-----------------------------------
--5--2--------------------4--9-----
--------3--1--4-----2--6--------3--
-----------------2-----------------

Jack Break -2nd part:
  	
Left:

--20^13--13--   --19^14--14--   --15--
-------15----   -------16----   ------
-------------   -------------   ------
-------------   -------------   ------
-------------   -------------   ------
-------------   -------------   ------

Center:

--------15-14-12-12-14-12-11-----------------15^17-17-15-15-15-14-15--
--12-13---------------------13-13-12-12-12-13-------------------------
----------------------------------------------------------------------
----------------------------------------------------------------------
----------------------------------------------------------------------
----------------------------------------------------------------------

--14-11-11-----12--
----------12-13----
-------------------
-------------------
-------------------

Right:

--15^12^14-15^17^15^14-15--
--17^14^16-17^19^17^16-17--
---------------------------
---------------------------
---------------------------
---------------------------

Jack Out:
  	

Left:

--0--0--
--1--1--
--0--0--
--3--2--
--3--3--
--1-----

Right (pitch shifter):

------
--13--
---x--
--10--
------
------

Solley Verse (capo 5):
  	
-----------------------
-----0-----------------
-----0-----------------
--2--2--4--5--2--4--5--
--2--3--3--3--3--3--3--
--0--------------------

Solley Pre-Chorus:
  	

Left (capo 5)

--2--0--2--0-----
--3--0--3--0--3--
--4--0--2--0--0--
--4--2--0--2--0--
--2--2-----3--x--
-----0--------3--

Right:

--15-17-15-12^10-12^10-12-8--
-----------------------------
-----------------------------
-----------------------------
-----------------------------
-----------------------------

Solley Chorus (capo 5):
  	
-----------3--
--0--0--3--2--
--0--0--0--3--
--2--4--0--0--
--3--3--x--x--
--------3--2--

Solley Break:
  	

Left:

-----------   -----
--0--0--0--   --0--
--4--1--3--   --4--
--5--3--4--   --5--
--5--2--4--   --5--
--3--1--2--   --3--

Right:

--------------------------------------
--------------------------------------
--9^12^11^8^4^9^12^11^16^17^21^20^17--
--x--x--x-x-x-x--x--x--x--x--x--x--x--
--7^10^ 9^6^2^7^10^ 9^14^15^19^18^19--
--------------------------------------

Solley Out:
  	
--------------
--0--0--0--3--
--0--0--0--0--
--2--4--5--0--
--3--3--3--x--
-----------3--

Comments about this tab

dobrijdjen - 2006-04-01

You copied this from davidcrowderband.com didn't you.


Add a comment/correction

Complimentary Christian Ringtones
Dadamobile and CGR have teamed up to bring your favorite Christian artists right to your phone. Sign up today and get 10 complementary ringtones!
Tab Country
Did you know CGR has a sister site w/ country guitar tabs? Well we do! Its called Tab Country. It has a great archive with a lot of country tabs.
Rockin Tabs
Are you looking for a site that has rock guitar tabs? Then Rockintabs.com is the place for you. It is a budding site with many rock guitar tabs. Submit your tab today.
Tab Gallery
Tab Gallery has a compilation of christian, rock, and country tabs all in one place. Come visit us.