Guitar Tabs
song title    band name

Join Us Today!

Don't strum alone...
be a part of the largest online Christian music community. Browse thousands of guitar tabs and chat w/ musicians like yourself.


It's Free!

This tab has been rated a 2.71 out of 5 for accuracy. (7 votes)Sorry, but you must be logged in to rate this tab.
Click here to log-in, or you can click here to register.
(Registration is free)

All songs owned by corresponding publishing company. If you make copies of any song on this website, be sure to report your usage to CCLI.
Submitted by: Anberlin_Rocks

A day late 
Music by Anberlin

Tuning: EADGBe

Intro x 2

Pm---------------------------------------------------------------------

|-----------------|-----------------|-----------------|------------------|
|-----------------|-----------------|-----------------|------------------|
|-----------------|-----------------|-----------------|------------------|
|-4-4-4-4-4-4-4-4-|-----------------|-----------------|------------------|
|-----------------|-2-2-2-2-2-2-2-2-|-4-4-4-4-4-4-4-4-|-4-4-4-4-4-4-4-4--|
|-----------------|-----------------|-----------------|------------------|



Verse

||--0-0-x-0-0-x-0-0-|-x-0-0-x-0-0-0-0-|-0-0-x-0-0-x-0-0-|-x-0-0-x-0-0-0-0--|
||--0-0-x-0-0-x-0-0-|-x-0-0-x-0-0-0-0-|-0-0-x-0-0-x-0-0-|-x-0-0-x-0-0-0-0--|
||--4-4-x-4-4-x-6-6-|-x-6-6-x-6-6-6-6-|-2-2-x-2-2-x-2-2-|-x-2-2-x-2-2-2-2--|
||--4-4-x-4-4-x-6-6-|-x-6-6-x-6-6-6-6-|-2-2-x-2-2-x-2-2-|-x-2-2-x-2-2-2-2--|x2
||--2-2-x-2-2-x-4-4-|-x-4-4-x-4-4-4-4-|-0-0-x-0-0-x-0-0-|-x-0-0-x-0-0-0-0--|
||------------------|-----------------|-----------------|------------------|



||--------0--------|-------0--------|-------0--------|-0-------------|
||----4------------|---4------------|---4------------|------0--------|
||--4---4----------|-4---4----------|-4---4----------|-----------2---|x2
||-----------------|----------------|----------------|---------------|
||-----------------|----------------|----------------|---------------|
||-----------------|----------------|----------------|---------------|


Pm---------------------------------------------------------------------

|-----------------|-----------------|-----------------|------------------|
|-----------------|-----------------|-----------------|------------------|
|-----------------|-----------------|-----------------|------------------|
|-4-4-4-4-4-4-4-4-|-6-6-6-6-6-6-6-6-|-2-2-2-2-2-2-2-2-|-2-2-2-2-2-2-2-2--|
|-2-2-2-2-2-2-2-2-|-4-4-4-4-4-4-4-4-|-0-0-0-0-0-0-0-0-|-0-0-0-0-0-0-0-0--|
|-----------------|-----------------|-----------------|------------------|


Pm---------------------------------

|-----------------|-----------------|----------|---------------|
|-----------------|-----------------|----------|---------------|
|-----------------|-----------------|-2--------|------4-4-4-2--|
|-4-4-4-4-4-4-4-4-|-6-6-6-6-6-6-6-6-|-2--------|------4-4-4-2--|
|-2-2-2-2-2-2-2-2-|-4-4-4-4-4-4-4-4-|-0--------|------2-2-2-0--|
|-----------------|-----------------|----------|---------------|


|----------------|------------|-----------------|
|----------------|------------|-----------------|
|-(2)----4-4-4-2-|-(2)--------|-(2)----4-4-4-4--|
|-(2)----4-4-4-2-|-(2)--------|-(2)----4-4-4-4--|
|-(0)----2-2-2-0-|-(0)--------|-(0)----2-2-2-2--|
|----------------|------------|-----------------|



Chorus x 2

|------------------|-----------------|-----------------|-----------------|
|------------------|-----------------|-----------------|-----------------|
|------------------|-----------------|-4-4-4-4-4-4-4-4-|-4-4-4-4-4-4-4-4-|
|--2-2-2-2-2-2-2-2-|-2-2-2-2-2-2-2-2-|-4-4-4-4-4-4-4-4-|-4-4-4-4-4-4-4-4-|
|--2-2-2-2-2-2-2-2-|-2-2-2-2-2-2-2-2-|-2-2-2-2-2-2-2-2-|-2-2-2-2-2-2-2-2-|
|--0-0-0-0-0-0-0-0-|-0-0-0-0-0-0-0-0-|-----------------|-----------------|


|-----------------|-----------------|------------------|-------------------|
|-----------------|-----------------|------------------|-------------------|
|-2-2-2-2-2-2-2-2-|-2-2-2-2-2-2-2-2-|-(2)-6-6-6-4-4-4-|-x--6-6-6-4-4-4-4---|
|-2-2-2-2-2-2-2-2-|-2-2-2-2-2-2-2-2-|-(2)-6-6-6-4-4-4-|-x--6-6-6-4-4-4-4---|
|-0-0-0-0-0-0-0-0-|-0-0-0-0-0-0-0-0-|-(0)-4-4-4-2-2-2-|-x--4-4-4-2-2-2-2---|
|-----------------|-----------------|------------------|-------------------|


Verse

|---------------|-------------------|-----------------|--------------------|
|---------------|-------------------|-----------------|--------------------|
|---------------|-------------------|-----------------|--------------------|
|-6-------------|-(6)---------------|-4---------------|-(4)----------------|
|-4-------------|-(4)---------------|-2---------------|-(2)----------------|
|---------------|-------------------|-----------------|--------------------|

Pm  --    --     -   -   --              --    --     -  -   - -   
|-----------------|-----------------|-----------------|------------------|
|-----------------|-----------------|-----------------|------------------|
|-6-----6-----6---|---6-----6-6-6-6-|-4-----4-----4---|---4-----4-4-4-4--|
|-6-----6-----6---|---6-----6-6-6-6-|-4-----4-----4---|---4-----4-4-4-4--|
|-4-4-4-4-4-4-4-4-|-4-4-4-4-4-4-4-4-|-2-2-2-2-2-2-2-2-|-2-2-2-2-2-2-2-2--|
|-----------------|-----------------|-----------------|------------------|


Pm---------------------------------------------------------------------

|-----------------|-----------------|-----------------|------------------|
|-----------------|-----------------|-----------------|------------------|
|-----------------|-----------------|-----------------|------------------|
|-4-4-4-4-4-4-4-4-|-6-6-6-6-6-6-6-6-|-2-2-2-2-2-2-2-2-|-2-2-2-2-2-2-2-2--|
|-2-2-2-2-2-2-2-2-|-4-4-4-4-4-4-4-4-|-0-0-0-0-0-0-0-0-|-0-0-0-0-0-0-0-0--|
|-----------------|-----------------|-----------------|------------------|


|-----------------|-----------------|------------------|--------------------|
|-----------------|-----------------|------------------|--------------------|
|-----------------|-----------------|------------------|-----------9-9-9-9--|
|-4-4-4-4-4-4-4-4-|-6-6-6-6-6-6-6-6-|-2--2-2-4-4-4-6-6-|--6--4-4-4----------|
|-2-2-2-2-2-2-2-2-|-4-4-4-4-4-4-4-4-|-0--0-0-2-2-2-4-4-|--4--2-2-2-7-7-7-7--|
|-----------------|-----------------|------------------|--------------------|
                                                       Not sure for this part  



Chorus



Breakdown


|-----------------|-----------------|
|-----------------|-----------------|
|-6-6-6-4-4-4-2-2-|-2-4-4-4-4-4-4-4-|
|-6-6-6-4-4-4-2-2-|-2-4-4-4-4-4-4-4-|
|-4-4-4-2-2-2-0-0-|-0-2-2-2-2-2-2-2-|
|-----------------|-----------------|



|-----------------|-----------------|-----------------|------------------|
|-----------------|-----------------|-----------------|------------------|
|-6-6-6-6-6-6-6-6-|-6-6-6-6-6-6-6-6-|-----------------|------------------|
|-6-6-6-6-6-6-6-6-|-6-6-6-6-6-6-6-6-|-2-2-2-2-2-2-2-2-|-2-2-2-2-2-2-2-2--|
|-4-4-4-4-4-4-4-4-|-4-4-4-4-4-4-4-4-|-2-2-2-2-2-2-2-2-|-2-2-2-2-2-2-2-2--|
|-----------------|-----------------|-0-0-0-0-0-0-0-0-|-0-0-0-0-0-0-0-0--|



|-----------------|-----------------|---------------|--------------------|
|-----------------|-----------------|---------------|--------------------|
|-2-2-2-2-2-2-2-2-|-2-2-2-2-2-2-2-2-|-4-4-4-4----4--|-----4-4-4-4-4-4-4--|
|-2-2-2-2-2-2-2-2-|-2-2-2-2-2-2-2-2-|-4-4-4-4----4--|-----4-4-4-4-4-4-4--|
|-0-0-0-0-0-0-0-0-|-0-0-0-0-0-0-0-0-|-2-2-2-2----2--|-----2-2-2-2-2-2-2--|
|-----------------|-----------------|---------------|--------------------|



Bridge/Interlude

Pm---------------------------------------------------------------------

|-----------------|-----------------|-----------------|------------------|
|-----------------|-----------------|-----------------|------------------|
|-----------------|-----------------|-----------------|------------------|
|-----------------|-----------------|-----------------|------------------|
|-4-4-4-4-4-4-4-4-|-4-4-4-6-6-6-7-7-|-2-2-2-2-2-2-2-2-|-2-2-2-6-6-6-7-7--|
|-----------------|-----------------|-----------------|------------------|


Pm---------------------------------------------------------------------

|-----------------|-----------------|-----------------|------------------|
|-----------------|-----------------|-----------------|------------------|
|-----------------|-----------------|-----------------|------------------|
|-----------------|-----------------|-----------------|------------------|
|-4-4-4-4-4-4-4-4-|-4-4-4-6-6-6-7-7-|-2-2-2-2-2-2-2-2-|-2-2-2-6-6-6-7-7--|
|-----------------|-----------------|-----------------|------------------|

|-0--------|
|-0--------|
|-2--------|
|-2--------|
|-0--------|
|----------|




Chorus x 4



This is an awesome song 
Any corrections e-mail me at ethans_apprentice@hotmail.com


Keep rocking for Christ
God bless

Comments about this tab

Anberlin_Rocks - 2006-02-13

This is only the rythm guitars part not the lead


3rd_day89 - 2006-04-15

It sounds to me that there are two notes in the intro not just one. I think its the first note and you just swith between the 2nd fret and the 4th. Try it.
Brad
<*)))><


XoKHSfish09oX - 2006-05-24

Will you please make the chords to this song, i havent quite figured out how to read tabs yet and im sure that alot of us new guitar players would like it if you would. thnks!


3rd Bassman - 2006-06-09

Hey thats a pretty good foundation! There are 2 notes in the intro too... i just need to figure them out... Great Song!


Ibanezkid26 - 2006-08-10

hey can u make the lead part i need it


Davomann - 2006-09-20

id like for the acoustic version to be tabbed and with the chords. you can download it on purevolume.com/anberlin


heisouronlyhope - 2006-11-27

the 3rd part in the intro is more then 1 note if you look at the video they should the lead guitar there.


heisouronlyhope - 2006-11-27

http://ultimate-guitar.com/tabs/a/anberlin/a_day_late_acoustic_tab.htm here is the acoustic verstion.


AnberlinFan - 2006-12-10

If a lead part can be made, that would be excellent. Great tabs!


broken sheep - 2006-12-29

Here is the intro

Guitar 1
|-----------------|-----------------|-----------------|------------------|
|-----------------|-----------------|-----------------|------------------|
|-----------------|-----------------|-----------------|------------------|
|-4-4-4-4-4-4-4-4-|-6-6-6-6-6-6-6-6-|-7-7-7-7-7-7-7-7-|-7-7-7-7-7-7-7-7--|
|-----------------|-----------------|-----------------|------------------|
|-----------------|-----------------|-----------------|------------------|
Pm. . . . . . . . . . . . . . . . . . . . . . . . . . . . . . . .

Guitar 2
|-----------------|-----------------|-----------------|------------------|
|-----------------|-----------------|-----------------|------------------|
|-----------------|-----------------|-----------------|------------------|
|-4-4-4-4-4-4-4-4-|-----------------|-----------------|------------------|
|-----------------|-2-2-2-2-2-2-2-2-|-4-4-4-4-4-4-4-4-|-4-4-4-4-4-4-4-4--|
|-----------------|-----------------|-----------------|------------------|
Pm. . . . . . . . . . . . . . . . . . . . . . . . . . . . . . . .


broken sheep - 2006-12-29

that kind of got messed up

all notes a palm-muted


PuNK RaWKeR - 2007-01-13

|-----------------|-----------------|-----------------|------------------|
|-5-5-5-5-5-5-5-5-|-5-5-5-7-7-7-9-9-|-4-4-4-4-4-4-4-4-|-4-4-4-5-5-5-7-7--|
|-----------------|-----------------|-----------------|------------------|
|-----------------|-----------------|-----------------|------------------|
|-----------------|-----------------|-----------------|------------------|
|-----------------|-----------------|-----------------|------------------|

| E E E E E E E E E E E E E E E E E E E E E E E E E E E E E E E E
|-----------------|-----------------|-----------------|------------------|
|-----------------|-----------------|-----------------|------------------|
|-----------------|-----------------|-----------------|------------------|
|-----------------|-----------------|-----------------|------------------|
|-4-4-4-4-4-4-4-4-|-4-4-4-6-6-6-7-7-|-2-2-2-2-2-2-2-2-|-2-2-2-6-6-6-7-7--|
|-----------------|-----------------|-----------------|------------------|

Um yea this is the bridge or woteva u kall it...urs was a lil off...unless u gt it in a dif tuning bt yea...itz also pm

nd 4 the korus...

E5 B5 Asus4 C#m B5 C#m Asus4 \E5
|-------0-----------0----------0----------0----0-----0----0--------0--|
|-------0-----------0----------0----------0----0-----0----0--------0--|
|-------9-----------4----------2----------6----4-----6----2--------9--|
|-------7-----------4----------2----------6----4-----6----2--------9--|
|-------7-----------2----------0----------4----2-----4----0--------7--|
|-------0-----------0----------0----------0----0-----0----0--------0--|
^ ^ ^ ^ ^ ^ ^ ^
(we r hu..)(kud ov ben..)(Day l8..) (we r hu..)(We r hu we wr wen...)

Wel thats what i figrd...dunno if its ryt..it sounds ok 2 me..bt thats jst me

BUT WAIT THERES MORE!!!

if u want chords...
ill du a version wit tabs... watch 4 it komin soon


PuNK RaWKeR - 2007-01-13

woops yea da words gt al mesd up sori..bt im sure u r al smart enuf to fig owt the tymin urself...i hope


+SEAL+ - 2007-04-19

The intro's actually fairly easy to do, if you use the following: the high D string is 4->6->7, and then the low D string is x->4->5.


skilletrocks - 2007-05-31

try this for the picking part in the verse.

e----0-----0-----0-----
B--4-----4-----4-------
G-4-4---6-6---2-2------


Add a comment/correction

Complimentary Christian Ringtones
Dadamobile and CGR have teamed up to bring your favorite Christian artists right to your phone. Sign up today and get 10 complementary ringtones!
Tab Country
Did you know CGR has a sister site w/ country guitar tabs? Well we do! Its called Tab Country. It has a great archive with a lot of country tabs.
Rockin Tabs
Are you looking for a site that has rock guitar tabs? Then Rockintabs.com is the place for you. It is a budding site with many rock guitar tabs. Submit your tab today.
Tab Gallery
Tab Gallery has a compilation of christian, rock, and country tabs all in one place. Come visit us.