Guitar Tabs
song title    band name

Join Us Today!

Don't strum alone...
be a part of the largest online Christian music community. Browse thousands of guitar tabs and chat w/ musicians like yourself.


It's Free!

This tab has not yet been rated for accuracy.Sorry, but you must be logged in to rate this tab.
Click here to log-in, or you can click here to register.
(Registration is free)

All songs owned by corresponding publishing company. If you make copies of any song on this website, be sure to report your usage to CCLI.
Submitted by: RockN4Jesus

artist: relient k
song: marilyn manson ate my girlfriend


 INTRO
e-----10---11---10-----------------------]
g-8-8----8----8----8------11-------10-8--]
b---------------------8-8----8-7-7-------]
d----------------------------------------] X 4
a----------------------------------------]
e----------------------------------------]

 VERSE
e----------------------------------------]
g----------------------------------------]
b----------------------------------------]
d-------7-77-5-5-5-----------------------]x 10
a-5-5-5-5-55-3-3-3-----------------------]
e-3-3-3----------------------------------]

this is the best i can do for the chorus right now tell if im wrong
e---------------------------------------------------------------------------
g---------------------------------------------------------------------------
b---------------------------------------------------------------------------
d-----------55-5-55-5------------77-7-77-7------------99-9-99-9-------------
a-55-5-55-5-33-3-33-3--77-7-77-7-55-5-55-5--99-9-99-9-77-7-77-7--77-7-77-7--
e-33-3-33-3------------55-5-55-5------------77-7-77-7------------55-5-55-5--
  ..   ..   ..   ..    ..   ..   ..   ..    ..   ..   ..   ..    ..   ..   

CHORUS continued
e----------------------]
g----------------------]
b----------------------]do this 2 X then after the 3rd time do the build on7
d-77-7-77-7--77777777--]                                                   5
a-55-5-55-5--55555555--]                                                   
e----------------------] 
  ..   .. 

order of the song
INTRO X 4
VERSE X 10
CHORUS X 3
VERSE X 10
CHORUS X 3
then VERSE till the end

Comments about this tab

No comments/corrections found. Add your own

Complimentary Christian Ringtones
Dadamobile and CGR have teamed up to bring your favorite Christian artists right to your phone. Sign up today and get 10 complementary ringtones!
Tab Country
Did you know CGR has a sister site w/ country guitar tabs? Well we do! Its called Tab Country. It has a great archive with a lot of country tabs.
Rockin Tabs
Are you looking for a site that has rock guitar tabs? Then Rockintabs.com is the place for you. It is a budding site with many rock guitar tabs. Submit your tab today.
Tab Gallery
Tab Gallery has a compilation of christian, rock, and country tabs all in one place. Come visit us.