Guitar Tabs
song title    band name

Join Us Today!

Don't strum alone...
be a part of the largest online Christian music community. Browse thousands of guitar tabs and chat w/ musicians like yourself.


It's Free!

This tab has been rated a 5.00 out of 5 for accuracy. (1 vote)Sorry, but you must be logged in to rate this tab.
Click here to log-in, or you can click here to register.
(Registration is free)

All songs owned by corresponding publishing company. If you make copies of any song on this website, be sure to report your usage to CCLI.
Submitted by: Shaneathin86

Song: Silver Speak
Artist: Blindside
Album: A Thought Crushed My Mind
EMI

I just recently got into this album, after liking their new stuff for a long 
time. It grew on me pretty quick. Easy Song, only a few riffs.

Verse
e--------------------------------------------------------------------------
B--------------------------------------------------------------------------
G--------------------------------------------------------------------------
D--7/8-88888-5-4-5/1010101010----------------------------------------------
A--7/8-88888-5-4-5/1010101010----------------------------------------------
E--5/6-66666-3-2-3/8--8-8-8-8----------------------------------------------

Chorus?
e--------------------------------------------------------------------------
B--------------------------------------------------------------------------
G--------------------------------------------------------------------------
D--88888888--3-4-3---------------------------------------------------------
A--88888888--3-4-3---------------------------------------------------------
E--66666666--1-2-1---------------------------------------------------------
             PM....

Verse Palm Muted with little different rhythm (not hard to hear)

Bridge
e--------------------------------------------------------------------------
B--------------------------------------------------------------------------
G--------------------------------------------------------------------------
D----------------------------------------4444--52525-----------------------
A---------------------------------(then)-4444--52525-----------------------
E--2-0-2-3-0-3-2-0-2-3-0-3-(repeated)----2222--30303-(repeated)------------

the rhythm in that second part changes sometimes throughout bridge and throw in 
a few palm mutes and ur golden! alright i'm out. Questions, comments, 
editorials, and other nonsense --> Shaneathin86@hotmail.com. enjoy!

                                                     -Shaner

Comments about this tab

Rockinthechurch - 2006-09-03

great Tab. This song rocks, go Blindside!


Add a comment/correction

Complimentary Christian Ringtones
Dadamobile and CGR have teamed up to bring your favorite Christian artists right to your phone. Sign up today and get 10 complementary ringtones!
Tab Country
Did you know CGR has a sister site w/ country guitar tabs? Well we do! Its called Tab Country. It has a great archive with a lot of country tabs.
Rockin Tabs
Are you looking for a site that has rock guitar tabs? Then Rockintabs.com is the place for you. It is a budding site with many rock guitar tabs. Submit your tab today.
Tab Gallery
Tab Gallery has a compilation of christian, rock, and country tabs all in one place. Come visit us.