Guitar Tabs
song title    band name

Join Us Today!

Don't strum alone...
be a part of the largest online Christian music community. Browse thousands of guitar tabs and chat w/ musicians like yourself.


It's Free!

This tab has not yet been rated for accuracy.Sorry, but you must be logged in to rate this tab.
Click here to log-in, or you can click here to register.
(Registration is free)

All songs owned by corresponding publishing company. If you make copies of any song on this website, be sure to report your usage to CCLI.
Submitted by: guitar king

i see that none of you can either figure the solo out for this song or dont 
feel like it..so here i am tabbing it for you guys. i hope you are happy. this
is 100% correct (i figured it out though..not from a book)
after||VV||feedback <--the siren thing sound repeat as necessary
Eb|-13--13--|--10~[feedback then slide]-13lr--13-10--------------------------
Bb|---12--12|--------------------------------------13-12-13-10----------------
Gb|-----------------------------------------------------------12-10-12-x-x----
Db|-----------------------------------------------------------------------10b-
Ab|---------------------------------------------------------------------------
Db|---------------------------------------------------------------------------

Eb|-15brb*--13p10p8-10---------------------------------------------------------
Bb|------------------13-13p10--13p10------------------------------------------
Gb|---------------------------------12-10--12-10-12b-12r-10-10h12-10-12b-12r--
Db|---------------------------------------------------------------------------
Ab|---------------------------------------------------------------------------
Db|---------------------------------------------------------------------------

Eb|---------------------------------------------------------------------------
Bb|---------------------------------------------------13--13p10-10-10-13p10---
Gb|-10----10-10-12p10---------10--10-10h12p10-10-12---------------------------
Db|-------------------12-10-12--12------------------10------------------------
Ab|---------------------------------------------------------------------------
Db|---------------------------------------------------------------------------

Eb|---------------------------------------------------------------------------
Bb|-10-10-13p10-8-6-6h8-10-6h8-10--8b-8pb-8pb-8pb-8pb-8r-8h9-6----------------
Gb|---------------------------------------------------------------------------
Db|---------------------------------------------------------------------------
Ab|---------------------------------------------------------------------------
Db|---------------------------------------------------------------------------

h-hammer on p-pull off b-bend ~-vibrato -slide down pb- pre-bend r-return bend
x- mute string lr-let ring brb*- what randy does is bend the string a whole
step and holds it. then he releases the bend a half step. then bends it back up

Comments about this tab

No comments/corrections found. Add your own

Complimentary Christian Ringtones
Dadamobile and CGR have teamed up to bring your favorite Christian artists right to your phone. Sign up today and get 10 complementary ringtones!
Tab Country
Did you know CGR has a sister site w/ country guitar tabs? Well we do! Its called Tab Country. It has a great archive with a lot of country tabs.
Rockin Tabs
Are you looking for a site that has rock guitar tabs? Then Rockintabs.com is the place for you. It is a budding site with many rock guitar tabs. Submit your tab today.
Tab Gallery
Tab Gallery has a compilation of christian, rock, and country tabs all in one place. Come visit us.