Guitar Tabs
song title    band name

Join Us Today!

Don't strum alone...
be a part of the largest online Christian music community. Browse thousands of guitar tabs and chat w/ musicians like yourself.


It's Free!

This tab has been rated a 4.71 out of 5 for accuracy. (7 votes)Sorry, but you must be logged in to rate this tab.
Click here to log-in, or you can click here to register.
(Registration is free)

All songs owned by corresponding publishing company. If you make copies of any song on this website, be sure to report your usage to CCLI.
Submitted by: Kyle1121

I got this tab from a friend so I can't take the credit. I didn't see 
this one posted but if I skipped it and its yours, I'm sorry. Please
tell me if it is. I don't have the entire song yet so let me know if you 
do. 
         Thnx,
             Kyle1121 ><>

E:--------------------------------------------------------------------
B:--------------------------------------------------------------------
G:-8-8-8-8-9-9-----------------------------8-8-8-8-9-9----------------
D:-------------9-9-11-11-11-11-11-11-11-11-------------9-9-11-11-11-11
A:--------------------------------------------------------------------
E:--------------------------------------------------------------------


E:--------------- 
B:---------------
G:-13-13---------
D:-------11-11---  (Repeat 2X)
A:---------------
E:---------------

That's it. Sorry I had to return the lines, I didn't have enough space 
in the box.I hope you don't get confused. It sounds perfect to me.  
Please leave me coments and corrections if you have them.

Comments about this tab

gcat1486 - 2006-02-03

In the end the endig is

e------------
B------------
G13-13--11-11
D------------
A------------
E-----------


Third_Day_Rocks - 2006-07-19

If you want the correct chords and intro tab of this song just go to worshiptogether.com. Or just go to the tab requests forum, under worship together new song cafe and I posted the link to the video.


Third_Day_Rocks - 2006-07-19

This is the correct intro(shown on the video):

capo 2nd fret
e|-------------0-0-----------------------------0-0---------2-2-0-0-|
B|-2-2-2-2-3-3-3-3-----------------2-2-2-2-3-3-3-3-3-3-3-3-3-3-3-3-|
G|-2-2-2-2-2-2-----4-4-4-4-4-4-4-4-2-2-2-2-2-2-----4-4-4-4---------|
D|-----------------4-4-4-4-4-4-4-4---------------------------------|
A|-----------------------------------------------------------------|
E|-----------------------------------------------------------------|


RoCk, rOcK oN! - 2006-11-14

right on, for the above commment.... i watched the video and the only capo i saw was being used by the lead singer and that was on the first fret.. i could have missed it though..


en31 - 2007-02-10

I could be wrong but i think its

e--------------------------------------------------------------------4-4-2-2
b--4-4-4-4-5-5-0-0-2-2-2-2-2-2-2-2----------4-4-4-4-5-5-0-0-2-2-2-2---------
g---------------------------------------------------------------------------
d---------------------------------------------------------------------------
a----------------------------------------------------------------------------
E----------------------------------------------------------------------------


en31 - 2007-02-10

sorry, like this
e[-----------------------------------------------------------4-4-2-2]
b[--4-4-4-4-5-5-0-0-2-2-2-2-2-2-2-2----4-4-4-4-5-5-0-0-2-2-2-2------]


en31 - 2007-02-10

no like this
e[-----------------------------------------------------------4-4-2-2]
b[--4-4-4-4-5-5-0-0-2-2-2-2-2-2-2-2---4-4-4-4-5-5-0-0-2-2-2-2------]


RickyB - 2007-02-27

I believe you'll find this to be to the cd:


e|---------------------------------------------------------4-4-2-2-|
B|-4-4-4-4-5-5---------------------4-4-4-4-5-5-------------5-5-4-4-|
G|-4-4-4-4-4-4-4-4-6-6-6-6-6-6-6-6-4-4-4-4-4-4-4-4-6-6-6-6---------|
D|-------------4-4-6-6-6-6-6-6-6-6-------------4-4-6-6-6-6---------|
A|-----------------------------------------------------------------|
E|-----------------------------------------------------------------|


aaronB_09 - 2008-01-21

here's an easier way to play it, the intro

e-----------------------------------------------------------------------------
B--------------------------------------------------------------------9-9--7-7-
G---8-8--9-9------------------------------8-8--9-9----------------------------
D------------9-9-11-11-11-11-11-11-11-11-----------9-9-11-11-11-11------------
A-----------------------------------------------------------------------------
E-----------------------------------------------------------------------------


PrestonW - 2008-02-17

E)---------------------------
B)---------------------9-9-7-7
G)-8-8-8-8-9-9-4-4-6-6--------
D----------------------------- (reapet 4 times)
A)----------------------------
E)----------------------------


Add a comment/correction

Complimentary Christian Ringtones
Dadamobile and CGR have teamed up to bring your favorite Christian artists right to your phone. Sign up today and get 10 complementary ringtones!
Tab Country
Did you know CGR has a sister site w/ country guitar tabs? Well we do! Its called Tab Country. It has a great archive with a lot of country tabs.
Rockin Tabs
Are you looking for a site that has rock guitar tabs? Then Rockintabs.com is the place for you. It is a budding site with many rock guitar tabs. Submit your tab today.
Tab Gallery
Tab Gallery has a compilation of christian, rock, and country tabs all in one place. Come visit us.