Guitar Tabs
song title    band name

Join Us Today!

Don't strum alone...
be a part of the largest online Christian music community. Browse thousands of guitar tabs and chat w/ musicians like yourself.


It's Free!

This tab has not yet been rated for accuracy.Sorry, but you must be logged in to rate this tab.
Click here to log-in, or you can click here to register.
(Registration is free)

All songs owned by corresponding publishing company. If you make copies of any song on this website, be sure to report your usage to CCLI.
Submitted by: shadowofangels

Artist: Jeremy Camp/Stolen Pride Music
Album: Live, Unplugged, Franklin TN

This Man

Here's the unplugged version as best as I can figure it. 
It's easier to play than the other version on this site.
Let me know what you think. I have the DVD and this is the key he
plays it in. 

INTRO:
E----0----0----0----0----0----0
A-----0----0---------0----0----
D------------------------------
G------------------------------
B--3----5----5----2----3----3--
E------------------------------ Play this twice. Then play this once:

E----0----0----0----0----0----0----0----0----0----0---0----0-
A-----0----0---------0----0---------0----0---------0---0----0
D------------------------------------------------------------
G------------------------------------------------------------
B--3----5----5----7----7----7----5----5----5----5----5---5---
E------------------------------------------------------------

VERSE: Same as above. 

PRECHORUS: 

A7sus4  Cadd9  G  Gadd9 
A7sus4 Cadd9 A7sus$ 

Chorus:

A7sus4  Cadd9  G  Gadd9  (x4)

Play the verse, prechorus, and chorus again. Then play the bridge- 

Bridge:

A7sus4  Cadd9  Em7  Cadd9
A7sus4  Cadd9

then play this part of the verse:
E----0----0----0----0----0----0
A-----0----0---------0----0----
D------------------------------
G------------------------------
B--3----5----5----7----7----7--
E------------------------------

Then play the prechorus and chorus again. Play the chords of the chorus until
the end of the song. Listen to the cd to figure out rhythyms and timing. 

CHORDS

A7sus4 002033
Cadd9  032033
G      320033
gadd9  300033
Em7    022033

And that's the song. Enjoy!

Comments about this tab

No comments/corrections found. Add your own

Complimentary Christian Ringtones
Dadamobile and CGR have teamed up to bring your favorite Christian artists right to your phone. Sign up today and get 10 complementary ringtones!
Tab Country
Did you know CGR has a sister site w/ country guitar tabs? Well we do! Its called Tab Country. It has a great archive with a lot of country tabs.
Rockin Tabs
Are you looking for a site that has rock guitar tabs? Then Rockintabs.com is the place for you. It is a budding site with many rock guitar tabs. Submit your tab today.
Tab Gallery
Tab Gallery has a compilation of christian, rock, and country tabs all in one place. Come visit us.