Guitar Tabs
song title    band name

Join Us Today!

Don't strum alone...
be a part of the largest online Christian music community. Browse thousands of guitar tabs and chat w/ musicians like yourself.


It's Free!

This tab has been rated a 4.00 out of 5 for accuracy. (1 vote)Sorry, but you must be logged in to rate this tab.
Click here to log-in, or you can click here to register.
(Registration is free)

All songs owned by corresponding publishing company. If you make copies of any song on this website, be sure to report your usage to CCLI.
Submitted by: Emsworth

How Do You Know
Words by Mac Powell
Music by Third Day
Copyright 2005 Consuming Fire Music (ASCAP)
Tabbed by Emsworth

The differences between this version of How Do You Know 
and drummer7189's version are, the intro tab
on this version is a bit more complicated, 
and there are some differences in the chords.


Intro:
   Am                             F                   C                G
 -------------------------------------------------------------------------
 --------------------------------------------------8----------------------
 ----7h9--7s5--------9----9s7s5-------5-----7h9-------9p7----------------
 ---------------7-----------------7---------------------------------------
 --------------------------------------------------------------------------
 --------------------------------------------------------------------------



   Am                             F                C              G
---------------------------------------------------------------------------
------------------------------------------------8--------8--------8h10----
--7--7h9--7s5--------9---9s7s5-------5----7h9-------9--------9------------
-----------------7----------------7----------------------------------------
---------------------------------------------------------------------------
---------------------------------------------------------------------------
 

 h=hammer on
  p=pull off
  s=slide


Chords

Verses:


Am      C    G    D
Am      C    G    D
F       Am
F          D


Chorus:
F    C   G    D
F    C   G    D
F    C   G    D
F       G

Comments about this tab

Emsworth - 2006-01-28

On the intro tab, the chords look confusing.
Just so you know they are:
Am F C G
Am F C G


3rd_day89 - 2006-04-04

Looks good!
<*)))><


jesusfreak936 - 2006-04-21

good tab


mitman - 2006-05-03

yeah, i agree sweet tab, do the intro chords u proposed work on the verse tho,


Add a comment/correction

Complimentary Christian Ringtones
Dadamobile and CGR have teamed up to bring your favorite Christian artists right to your phone. Sign up today and get 10 complementary ringtones!
Tab Country
Did you know CGR has a sister site w/ country guitar tabs? Well we do! Its called Tab Country. It has a great archive with a lot of country tabs.
Rockin Tabs
Are you looking for a site that has rock guitar tabs? Then Rockintabs.com is the place for you. It is a budding site with many rock guitar tabs. Submit your tab today.
Tab Gallery
Tab Gallery has a compilation of christian, rock, and country tabs all in one place. Come visit us.