Guitar Tabs
song title    band name

Join Us Today!

Don't strum alone...
be a part of the largest online Christian music community. Browse thousands of guitar tabs and chat w/ musicians like yourself.


It's Free!

This tab has been rated a 5.00 out of 5 for accuracy. (1 vote)Sorry, but you must be logged in to rate this tab.
Click here to log-in, or you can click here to register.
(Registration is free)

All songs owned by corresponding publishing company. If you make copies of any song on this website, be sure to report your usage to CCLI.
Submitted by: rockinfarmerboy

Song: I Can Be Your Friend
Artist: Supertones
Album: Veggie Rocks
Copyright 2004 Forefront Records

Standard Tuning: Eadgbe

Intro: Just listen for the chord changes.

e|--------------------------------|
b|--------------------------------|
g|----99-----66-------------------|
d|----99-99--66-66-77-22-77-99----|
a|----77-99--44-66-77-22-77-99----|
E|-------77-----44-55-00-55-77----|

This part leads into the chorus.  Use ska rhythm and listen for the
changes.

e|-1212-77-1212-77----|
b|-1212-77-1212-77----|
g|-1313-88-1313-88----|
d|-1414-99-1414-99----|
a|--------------------|
E|--------------------|

Verse: Use ska rhythm and listen for the changes.

e|-1212-77-9--9--44-55-00-55-77------|
b|-1212-77-9--9--44-55-00-55-77------|
g|-1313-88-1010--55-66-11-66-88------| Repeat x2
d|-1414-99-1111--66-77-22-77-99------|
a|---------------------22------------|
E|---------------------00------------|


Chorus: Hereís the chord progression.
 Basically the same as the intro.
e|------------------------------|
b|------------------------------|
g|-99-----66--------------------|
d|-99-99--66-66-77-22-77-99-----|
a|-77-99--44-66-77-22-77-99-----|
E|----77-----44-55-00-55-77-----|

Then go to the Verse again and play through once, then back to the chorus.
Play it twice, and then it goes into a guitar solo, which I havenít
tabbed yet, but may post later.  Itís a little harder to figure on an
acoustic.  Feel free to tab it and post it.
Then thereís the rhythm part thatís just the chorus.  Use
mutes as necessary.  Itís the same pattern as the chorus for the rest
of the song, except for the last time through the chorus.

e|---------------------------------|
b|---------------------------------|
g|-99----66-------------6---6-8-9--|
d|-99-99-66-66-77-22-77-6-7-6-8-9--|   Let ring
a|-77-99-44-66-77-22-77-4-7-4-6-7--|
E|----77----44-55-00-55---5--------|

Thatís about it.  Itís really easy to play but extremely enjoyable.
Rate it once youíve learned it and not before! :)  
-rockinfarmerboy-




















Comments about this tab

Tyran001 - 2006-02-27

good tab, but its useless w/out the solo. ya gotta figure that out dude!!!!


Add a comment/correction

Complimentary Christian Ringtones
Dadamobile and CGR have teamed up to bring your favorite Christian artists right to your phone. Sign up today and get 10 complementary ringtones!
Tab Country
Did you know CGR has a sister site w/ country guitar tabs? Well we do! Its called Tab Country. It has a great archive with a lot of country tabs.
Rockin Tabs
Are you looking for a site that has rock guitar tabs? Then Rockintabs.com is the place for you. It is a budding site with many rock guitar tabs. Submit your tab today.
Tab Gallery
Tab Gallery has a compilation of christian, rock, and country tabs all in one place. Come visit us.