Guitar Tabs
song title    band name

Join Us Today!

Don't strum alone...
be a part of the largest online Christian music community. Browse thousands of guitar tabs and chat w/ musicians like yourself.


It's Free!

This tab has been rated a 4.67 out of 5 for accuracy. (3 votes)Sorry, but you must be logged in to rate this tab.
Click here to log-in, or you can click here to register.
(Registration is free)

All songs owned by corresponding publishing company. If you make copies of any song on this website, be sure to report your usage to CCLI.
Submitted by: hwarbri

This Man
Jeremy Camp
Restored

Tabbed by Heath Warbritton (hwarbri@uark.edu)

Standard Tuning - Capo I

Intro / Verses (Lead Guitar):

e|----------------------------------
b|---0--------0---------0-----0-----
g|-----0--------0---0-----0-----0---
d|-------0--------0-----------------
a|-3------------------2-----3-----3-
e|----------------------------------

e|----------------------------------
b|---0--------0---------0-----0-----
g|-----0--------0---0-----0-----0---
d|-------0--------0-----------------
a|-3------------------2-----3-----3-
e|----------------------------------

e|----------------------------------
b|---0-----0---------0-----0--------
g|-----0-----0---0-----0-----0---0--
d|-------0-----0---2-----2-----2----
a|-3--------------------------------
e|----------------------------------

e|----------------------------------
b|---0-----0---------0-----0-----0--
g|-----0-----0---0-----0-----0------
d|-0-----0-----0---0-----0-----0----
a|----------------------------------
e|----------------------------------

Verses (Rythym):
C2	Em7	C2	Em7
C2	Em7	D/F#
C2	Em7	D/F#
C2	Em7	D/F#

Chorus:
Em7	C2	G	D/F#
Em7	C2	G	D/F#
Em7	C2	G	D/F#
Em7	C2	G	D/F#
C

Bridge:
C	Am(7)
C	Am(7)
C	Am(7)

*NOTES*
1. Chords are subject to what you think sounds best. 
   The base major and minors work just as well as those tabbed.
2. The Verse is best done with the Lead part.
3. The tab is not arranged by time.
   The timing should be easy enough to figure out.
4. If you would like a copy with words, e-mail me @
   hwarbri@uark.edu with "This Man tab" as the subject.

Hope you found this tab helpful! Praise God in all you do!

Comments about this tab

No comments/corrections found. Add your own

Complimentary Christian Ringtones
Dadamobile and CGR have teamed up to bring your favorite Christian artists right to your phone. Sign up today and get 10 complementary ringtones!
Tab Country
Did you know CGR has a sister site w/ country guitar tabs? Well we do! Its called Tab Country. It has a great archive with a lot of country tabs.
Rockin Tabs
Are you looking for a site that has rock guitar tabs? Then Rockintabs.com is the place for you. It is a budding site with many rock guitar tabs. Submit your tab today.
Tab Gallery
Tab Gallery has a compilation of christian, rock, and country tabs all in one place. Come visit us.