Guitar Tabs
song title    band name

Join Us Today!

Don't strum alone...
be a part of the largest online Christian music community. Browse thousands of guitar tabs and chat w/ musicians like yourself.


It's Free!

This tab has not yet been rated for accuracy.Sorry, but you must be logged in to rate this tab.
Click here to log-in, or you can click here to register.
(Registration is free)

All songs owned by corresponding publishing company. If you make copies of any song on this website, be sure to report your usage to CCLI.
Submitted by: holdencaulfield

Far, Far Away
Five Iron Frenzy


Intro

E------------------------
B------------------------
G------------------------
D-44444444444444-77----X2
A-44444444444444-77----X2
E------------------------


Verse
Guitar 1
E----------------------------------------------
B----------------------------------------------
G----------------------------------------------
D-44444444444444-77  X2  -66666666666666-77  X2
A-44444444444444-77  X2  -66666666666666-77  X2
E----------------------------------------------

Guitar 2
Palm Mute
E------------------------------------
B------------------------------------
G------------------------------------
D------------------------------------
A--0-0-3-0-0-5--X2----2-2-5-2-2-7--X2
E------------------------------------




Chorus
Guitar 1
F Bb G C

Guitar 2
     F        C     Bb   C       G         C
E------------------------------------------------
B------------------------------------------------
G-10--10-10---5---3--3-3-5---------------5--5-5-5
D-----------------------------5--5-5-5-----------
A-8---8--8----3---1--1-1-3---------------3--3-3-3
E-----------------------------3--3-3-3-----------

Bridge

F E D C A# A A# C

Uou do more verses and choruses and bridges and then a bunch 
of choruses and you end on an F

I can't really hear the second guitar part during the chorus too good 
but it sounds okay of you play what I put there

Comments about this tab

holdencaulfield - 2006-03-11

hey sorry, i wrote this tab
but i accidently made the intro and verse flat.
just play them up a half step

so instead of 4 4 4 4 7,
play 5 5 5 5 8

and so on

sorry about that


Add a comment/correction

Complimentary Christian Ringtones
Dadamobile and CGR have teamed up to bring your favorite Christian artists right to your phone. Sign up today and get 10 complementary ringtones!
Tab Country
Did you know CGR has a sister site w/ country guitar tabs? Well we do! Its called Tab Country. It has a great archive with a lot of country tabs.
Rockin Tabs
Are you looking for a site that has rock guitar tabs? Then Rockintabs.com is the place for you. It is a budding site with many rock guitar tabs. Submit your tab today.
Tab Gallery
Tab Gallery has a compilation of christian, rock, and country tabs all in one place. Come visit us.