Guitar Tabs
song title    band name

Join Us Today!

Don't strum alone...
be a part of the largest online Christian music community. Browse thousands of guitar tabs and chat w/ musicians like yourself.


It's Free!

This tab has not yet been rated for accuracy.Sorry, but you must be logged in to rate this tab.
Click here to log-in, or you can click here to register.
(Registration is free)

All songs owned by corresponding publishing company. If you make copies of any song on this website, be sure to report your usage to CCLI.
Submitted by: guittarzan

Title: All The Heavens
Artist: Third Day
Album: Offerings

I chose to tab this song out a little differently than everyone else I have
seen so far.  It is the same key, just CAPO'd 3rd fret instead of 8th.  I like
this better, it sounds dead accurate to me, and is alot easier to work with
because of the jumble-ation at 8.  I like finger picking, but flat pickers
can do it as well!!  

Standard EADGBe tuning
CAPO 3
h- hammer on
p- pull off
~- ring out

2X                                                           [(G)lt stm] 
e---------------0--3------------0-------0---0-3-1---0---------3-----------------
B---------1---1----3--3h5p3---3-1-----1---------1---1---3-1h3-3-----3-1~--------
G---0h2p0---0------0--------5---2---2-----2-----2-2-----------0---0---0~--------
D-------------------------------------------------------------0---0-------------
A---------3---------------------0-0---------0-0-3-----3-0-----2-2-----3~--------
E-------------------------------------------------------------3-----------------


e-0-3-5---5---5---3---5---3---0--8-7-5---5---5---8-7-----7-7h8p7----------------
B-1---6---6---6---6---6---6------8-8-6---6---6---6-8---8---------8--------------
G-0---5-5---5---0--0---0---0-----7-7-5-5---5---5-5-7-7--------------------------
D-2-----------------------------------------------------------------------------
A-3-----------------------------------------------------------------------------
E-------------------------------------------------------------------------------

                                                            [(G)lt stm]
e--8-7-5---5---5---3---5---3--0-------0-----0-3-1---0---------3------------------
B--8-8-6---6---6---6---6----6-------1-----1-----1---1---3-1h3-3-----3-1~---------
G--7-7-5-5---5---0---0---0--------2-------------2-2-----------0---0---0~---------
D-------------------------------2-------2---------------------0---0--------------
A-----------------------------------------------3-----3-0-----2-2-----3~---------
E-------------------------------------------------------------3------------------


please add any suggestions, god bless

(this may be easier than CAPO 8 for you larger fingered people like myself!!)

Comments about this tab

No comments/corrections found. Add your own

Complimentary Christian Ringtones
Dadamobile and CGR have teamed up to bring your favorite Christian artists right to your phone. Sign up today and get 10 complementary ringtones!
Tab Country
Did you know CGR has a sister site w/ country guitar tabs? Well we do! Its called Tab Country. It has a great archive with a lot of country tabs.
Rockin Tabs
Are you looking for a site that has rock guitar tabs? Then Rockintabs.com is the place for you. It is a budding site with many rock guitar tabs. Submit your tab today.
Tab Gallery
Tab Gallery has a compilation of christian, rock, and country tabs all in one place. Come visit us.