Guitar Tabs
song title    band name

Join Us Today!

Don't strum alone...
be a part of the largest online Christian music community. Browse thousands of guitar tabs and chat w/ musicians like yourself.


It's Free!

This tab has been rated a 5.00 out of 5 for accuracy. (1 vote)Sorry, but you must be logged in to rate this tab.
Click here to log-in, or you can click here to register.
(Registration is free)

All songs owned by corresponding publishing company. If you make copies of any song on this website, be sure to report your usage to CCLI.
Submitted by: brandon1

Song:I Know You're There
Artist:Matthew West
 Album:History
  
   

 Intro   
e|------------------------------------------|4x
B|------------------------------------------|
G|------------------------------------------| (Drums start after 2nd time)
D|-----------4-6-4-6-6-4------------4-------|
A|---4h6-4h6------------6--4h6-4h6-4--------|
E|------------------------------------4-2---|

 Verse 1:
    (C#)           (D#)    (C#)       (D#) 
e|---4-----------6--6-6-----4-------6--6-6-----------|
B|---4-----------6--6-6-----4-------6--6-6-----------|
G|---6-----------8--8-8-----6-------8--8-8-----------|
D|---6--slide to-8--8-8-----6-slide-8--8-8---4-------|
A|---4-----------6--6-6-----4-------6--6-6-----------|
E|---4-----------6--6-6-----4-------6--6-6-----4-2---|
  
    (C#)           (D#) (G#m) (C#)       (D#) 
e|---4-----------6--6-6--4-----4-------6--6-6-----------|
B|---4-----------6--6-6--4-----4-------6--6-6-----------|
G|---6-----------8--8-8--4-----6-------8--8-8-----------|
D|---6--slide to-8--8-8--6-----6-slide-8--8-8---4-------|
A|---4-----------6--6-6--6-----4-------6--6-6-----------|
E|---4-----------6--6-6--4-----4-------6--6-6-----4-2---|
       
     
Pre-Chorus:
 
       (D#)  (G#m) (B)   (F#)  (D#m)  (G#m) (B)     (Bb)
e|------6-----4-----2-----2-----6-----4-----2-------1-1-1-1-1-1-1-1--|
B|------6-----4-----2-----2-----7-----4-----2-------1-1-1-1-1-1-1-1--|
G|------8-----4-----4-----3-----8-----4-----4-------3-3-3-3-3-3-3-3--|
D|------8-----6-----4-----4-----8-----6-----4-------3-3-3-3-3-3-3-3--|
A|------6-----6-----2-----4-----6-----6-----2-------1-1-1-1-1-1-1-1--|
E|------6-----4-----2-----2-----6-----4-----2-------1-1-1-1-1-1-1-1--|
                                                   ^^palm mute these^^
Chorus:

      B  F#   C#   D#m    (look above for the tabbed version)

Verse 2:
e|------------------------------------------4---------------------------|
B|------------------------------------------4---------------------------|
G|------------------------------------------4---------------------------|
D|-----------4-----------4------------------6-----------4---------------|
A|---4h6-4h6------4h6-4h6----------4h6-4h6--6---4h6-4h6-----------------|
E|-------------------------4-2--------------4-------------4-2-----------|

Pre-Chorus

Chorus

Bridge:
e|------------------------------------4-4-4-4---6-6-6-6-----|
B|------------------------------------4-4-4-4---6-6-6-6-----|
G|------------------------------------4-4-4-4---6-6-6-6-----|
D|------------------------------------6-6-6-6---8-8-8-8-----|
A|--4h6-4-6----4h6-4-6----4h6-4-6-----6-6-6-6---8-8-8-8-----|
E|------------------------------------4-4-4-4---6-6-6-6-----|

e|------------------------------------4-4-4-4---6-6-6-6-----|
B|------------------------------------4-4-4-4---6-6-6-6-----|
G|------------------------------------6-6-6-6---8-8-8-8-----|
D|------------------------------------6-6-6-6---8-8-8-8-----|
A|--4h6-4-6----4h6-4-6----4h6-4-6-----4-4-4-4---6-6-6-6-----|
E|------------------------------------4-4-4-4---6-6-6-6-----|

   B  F#   C#   D#m (2X)  (same chords as chorus)

Piano Solo

Chorus 
           
    Well there it is. sounds right when i play along with the cd. if you find any 

mistakes let me know. 

Comments about this tab

No comments/corrections found. Add your own

Complimentary Christian Ringtones
Dadamobile and CGR have teamed up to bring your favorite Christian artists right to your phone. Sign up today and get 10 complementary ringtones!
Tab Country
Did you know CGR has a sister site w/ country guitar tabs? Well we do! Its called Tab Country. It has a great archive with a lot of country tabs.
Rockin Tabs
Are you looking for a site that has rock guitar tabs? Then Rockintabs.com is the place for you. It is a budding site with many rock guitar tabs. Submit your tab today.
Tab Gallery
Tab Gallery has a compilation of christian, rock, and country tabs all in one place. Come visit us.