Guitar Tabs
song title    band name

Join Us Today!

Don't strum alone...
be a part of the largest online Christian music community. Browse thousands of guitar tabs and chat w/ musicians like yourself.


It's Free!

This tab has been rated a 3.90 out of 5 for accuracy. (10 votes)Sorry, but you must be logged in to rate this tab.
Click here to log-in, or you can click here to register.
(Registration is free)

All songs owned by corresponding publishing company. If you make copies of any song on this website, be sure to report your usage to CCLI.
Submitted by: MMHMM RK

Song: Bring em' Out
Artist: Hawk Nelson
Album: Smile, It's the End of the World
Submitted By: MMHMM RK

I saw them play this in concert last nite and it was awesome!!!!!!!!
I'll put chords for the Verse and Chorus and all that and then I'll tab out the
solo. Is that OK with you? Well It doesn't matter because I'm doin it anyways!;)

Intro (After Drums):
B   E   B   G   B   E   F#

Verse:
B (Fade) B  E  F#  E   
B  E  F#  Then do it again and instead of fading play the first B kinda stacato 

Pre-Chorus:
Just Play a B over and over stacato like

Chorus:
Same as Verse

Then Play the intro B E B G palm muted.

Do the whole thing like 2 times then play the chorus palm muted then do the 
chorus again more dragged out.

Solo:

e-------------------------------------------------12h13p12-9--7/9-9-9-6-7-9-7
B-/7-7-7-0-0-2h4p2-2--/7-7-7-11-12-14--12-12-12-12---------------------------
G----------------------------------------------------------------------------
D----------------------------------------------------------------------------
A----------------------------------------------------------------------------
E----------------------------------------------------------------------------

Then the chorus just bass and then after that play the chorus a half step up.
Then just play the intro till the end.

This song took me a while to put together. It's an excellent song from an 
an awesome band!!!!!

Love God Love People,
JPatty

Comments about this tab

MMHMM RK - 2006-01-19

Alright. Whenever i post a song i always forget something or figure out a better way to play it.

here's the correct solo
e-------------------------------------------------12h13p12-9--7/9-9-9-6-7-9-7
B-/7-7-7-0-0-4h5p4-2--/7-7-7-11-12-14--12-12-12-12---------------------------
G----------------------------------------------------------------------------
D----------------------------------------------------------------------------
A----------------------------------------------------------------------------
E----------------------------------------------------------------------------

And then the chorus that goes up higher is played like this.

C# F# C# G#

with that it should be completely correct


MMHMM RK - 2006-01-19

AHHHH. easier to read version

e---------------------------------------------12h13p12-9--7/9-9-9-6-7-9-7
B/7-7-7-0-0-2h4p2-2--/7-7-7-11-12-14--12-12-12-12------------------------
G------------------------------------------------------------------------
D------------------------------------------------------------------------
A------------------------------------------------------------------------
E------------------------------------------------------------------------


inhimalways - 2006-01-22

dont you mean it should be like this:

e--------------------------------------------12h13p12-9--7/9-9-9-6-7-9-7
B-/7-7-7-0-0-4h5p4-2--/7-7-7-11-12-14--12-12-12-12----------------------
G-----------------------------------------------------------------------
D-----------------------------------------------------------------------
A-----------------------------------------------------------------------
E-----------------------------------------------------------------------


MMHMM RK - 2006-01-22

yea except you dont start playin on the e string until right after the last note on the b string. Thanx bro!


gotexans289 - 2006-02-08

Dude, you're the coolest


krutchfan66 - 2006-04-05

alright i dont exactly think this sounds great no offense i mean the verse does but i just got the cd yesterday and tabbed 8 of the 12 songs some with the solos some without and im tabbing this song over k?no offense but i mean its not so great......


akaukal - 2006-04-05

it doesnt sound perfect because they're jus the chords!


whatsmyageagain - 2006-04-08

This tab is NOT very close! Sorry! The cd rocks! I'm tabbing the cd also!


Martian Rocker - 2006-04-13

Um Guys this is awesome and I will just have to try out this song and find out the accuracy.


simmonds - 2006-04-18

Cords and tab


Missionaryman - 2006-04-20

aren't the chords played on the off beat


joshyk - 2006-05-02


sweet tab!!


homie for him - 2006-05-06

tab sounds awsome it sounds like the cd


Add a comment/correction

Complimentary Christian Ringtones
Dadamobile and CGR have teamed up to bring your favorite Christian artists right to your phone. Sign up today and get 10 complementary ringtones!
Tab Country
Did you know CGR has a sister site w/ country guitar tabs? Well we do! Its called Tab Country. It has a great archive with a lot of country tabs.
Rockin Tabs
Are you looking for a site that has rock guitar tabs? Then Rockintabs.com is the place for you. It is a budding site with many rock guitar tabs. Submit your tab today.
Tab Gallery
Tab Gallery has a compilation of christian, rock, and country tabs all in one place. Come visit us.