Guitar Tabs
song title    band name

Join Us Today!

Don't strum alone...
be a part of the largest online Christian music community. Browse thousands of guitar tabs and chat w/ musicians like yourself.


It's Free!

This tab has not yet been rated for accuracy.Sorry, but you must be logged in to rate this tab.
Click here to log-in, or you can click here to register.
(Registration is free)

All songs owned by corresponding publishing company. If you make copies of any song on this website, be sure to report your usage to CCLI.
Submitted by: RelientKFan7

Song Name: Softer To Me
Artist: Relient K
CD Title: Self Titled
Tabbed By: RelientKFan7
Copyright Info: 2000 Gotee Records Inc.

I tried to submit this song beforeÖ but it wasnít put up in its entiretyÖ 
None of the other tabs are quite right on the chorus and I
put in some little fills that the others didnít have.

Both Guitars Tuned down Ĺ Step (Eb, Ab, Db, Gb, Bb, Eb)
Intro: Guitar 1 (Played 4x)
eb|--------------------------------------
Bb|--------------------------------------
Gb|---667666766---6---------9------------
Db|------------777-777779777-76676667----
Ab|--------------------------------------
Eb|--------------------------------------

Guitar 2: Tacet(Silent) 1st time through intro
2nd time through: F5
eb|--------------------------------------
Bb|--------------------------------------
Gb|--------------------------------------
Db|--4-----------------------------------
Ab|--4-----------------------------------
Eb|--2-----------------------------------

Guitar 2: 3rd time (Play 2x)
      F5   C#5   G#5   D#5
eb|--------------------------------------
Bb|--------------------------------------
Gb|--------7--7--------9--9--------------
Db|--4--4--7--7--7--7--9--9-------------- 
Ab|--4--4--5--5--7--7--7--7-------------- 
Eb|--2--2--------5--5-------------------- 
                                        
Verse: Both Guitars
eb|-------------------------------------------------------------------------
Bb|-------------------------------------------------------------------------
Gb|---------77------------99999999------------77777777------------99999999--
Db|--44--4--77--77777777--99999999--44444444--77777777--77777777--99999999--
Ab|--44--4--55--77777777--77777777--44444444--55555555--77777777--77777777--
Eb|--22--2------55555555------------22222222------------55555555------------

eb|----------------------------------------------------xxxxxx---------------
Bb|----------------------------------------------------xxxxxx---------------
Gb|------------77777777------------99999999-------7----xxxxxx---------------
Db|--44444444--77777777--77777777--99999999---4--7--7--xxxxxx--7------------
Ab|--44444444--55555555--77777777--77777777--4--5--7---xxxxxx--7------------
Eb|--22222222------------55555555-----------2-----5----xxxxxx--5------------
Chorus:
Part 1 Guitar 1 (Play 3x)
eb|--------------------------------------
Bb|----2-232-----2-232----2-232-----0---2  

Comments about this tab

Switchfoot_ - 2007-03-19

Nice Tab! But i think the D#m should be an A#m. It sounds stronger(and a tiny bit different).


Add a comment/correction

Complimentary Christian Ringtones
Dadamobile and CGR have teamed up to bring your favorite Christian artists right to your phone. Sign up today and get 10 complementary ringtones!
Tab Country
Did you know CGR has a sister site w/ country guitar tabs? Well we do! Its called Tab Country. It has a great archive with a lot of country tabs.
Rockin Tabs
Are you looking for a site that has rock guitar tabs? Then Rockintabs.com is the place for you. It is a budding site with many rock guitar tabs. Submit your tab today.
Tab Gallery
Tab Gallery has a compilation of christian, rock, and country tabs all in one place. Come visit us.