Guitar Tabs
song title    band name

Join Us Today!

Don't strum alone...
be a part of the largest online Christian music community. Browse thousands of guitar tabs and chat w/ musicians like yourself.


It's Free!

This tab has been rated a 4.50 out of 5 for accuracy. (4 votes)Sorry, but you must be logged in to rate this tab.
Click here to log-in, or you can click here to register.
(Registration is free)

All songs owned by corresponding publishing company. If you make copies of any song on this website, be sure to report your usage to CCLI.
Submitted by: acrossthesirion

This Time is the Last Time
Mae
Standart Tuning

p-pull off
~-let ring

On this song there's a lead part on the chorus but I didn't tab it

Intro
  A2
E-0-0-0-0-0-0-0-0-
B-0-0-0-0-0-0-0-0-
G-2-2-2-2-2-2-2-2-
D-2-2-2-2-2-2-2-2-
A-0-0-0-0-0-0-0-0-
E-----------------

Verse 1 (x2)
Acoustic Guitar
  A2                              Fmaj7   D2      A2
E-0-0-0-0-0-0-0-0-0-0-0-0-0-0-0-0---------0-0-0-0-0-0-0-0-0-0-0-0-
B-0-0-0-0-0-0-0-0-0-0-0-0-0-0-0-0-5-5-5-5-3-3-3-3-0-0-0-0-0-0-0-0-
G-2-2-2-2-2-2-2-2-2-2-2-2-2-2-2-2-5-5-5-5-2-2-2-2-2-2-2-2-2-2-2-2-
D-2-2-2-2-2-2-2-2-2-2-2-2-2-2-2-2-3-3-3-3-0-0-0-0-2-2-2-2-2-2-2-2-
A-0-0-0-0-0-0-0-0-0-0-0-0-0-0-0-0-----------------0-0-0-0-0-0-0-0-
E-----------------------------------------------------------------

Transition Riff (x2)
Acoustic Guitar
these lines are breaks in the rhythm if they don't help you just ignore them
E---------------|-----|-----|-------|---------------|-------|-----0~--
B---------------|-----|-----|---0---|---------------|-------|-------3~
G---------------|-----|-----|-----0-|---------------|-----0~|---2~----
D-----2p0---0---|-----|---2-|-------|-----2p0---0---|-------|-0~------
A-0-------3-----|---3-|-0---|-0-----|-0-------3-----|---2~--|---------
E-------------3-|-1---|-----|-------|-------------3-|-1~----|---------

Verse 2 (x2)
Electric Guitar
They might not play the D string on the A2/E but I can't tell
  A2/E                            Fmaj7   D2      A2/E
E-0-0-0-0-0-0-0-0-0-0-0-0-0-0-0-0---------0-0-0-0-0-0-0-0-0-0-0-0-
B-0-0-0-0-0-0-0-0-0-0-0-0-0-0-0-0-5-5-5-5-3-3-3-3-0-0-0-0-0-0-0-0-
G-2-2-2-2-2-2-2-2-2-2-2-2-2-2-2-2-5-5-5-5-2-2-2-2-2-2-2-2-2-2-2-2-
D-2-2-2-2-2-2-2-2-2-2-2-2-2-2-2-2-3-3-3-3-0-0-0-0-2-2-2-2-2-2-2-2-
A-----------------------------------------------------------------
E-----------------------------------------------------------------

Chorus 1 (x1)
Electric Guitar
  F5               A5       G5       F5               D2/A
E-----------------------------------------------------0000000000000000-
B-----------------------------------------------------3333333333333333-
G-----------------------------------------------------2222222222222222-
D-3333333333333333-77777777-55555555-3333333333333333-0000000000000000-
A-3333333333333333-77777777-55555555-3333333333333333-0000000000000000-
E-1111111111111111-55555555-33333333-1111111111111111------------------


Transition Riff (x1)
Acoustic Guitar

Verse 3 (x2)
Electric Guitar
Same as Verse 2
Chorus 2 (x1)
Electric Guitar
  F5               A5       G5       F5               D2/A
E-----------------------------------------------------0000000000000000-
B-----------------------------------------------------3333333333333333-
G-----------------------------------------------------2222222222222222-
D-3333333333333333-77777777-55555555-3333333333333333-0000000000000000-
A-3333333333333333-77777777-55555555-3333333333333333-0000000000000000-
E-1111111111111111-55555555-33333333-1111111111111111------------------

Chorus 2 count.
Electric Guitar
  F5               D2/A             F5
E------------------0000000000000000------------------
B------------------3333333333333333------------------
G------------------2222222222222222------------------
D-3333333333333333-0000000000000000-3333333333333333-
A-3333333333333333-0000000000000000-3333333333333333-
E-1111111111111111------------------1111111111111111-

Transition Riff (x2)
Acoustic Guitar

Verse 4 (x1)
Electric Guitar
Same as Verse 2

Chorus 3 (x1)
Electric Guitar
  F5               A5       G5       F5               D2/A
E-----------------------------------------------------00000000-
B-----------------------------------------------------33333333-
G-----------------------------------------------------22222222-
D-3333333333333333-77777777-55555555-3333333333333333-00000000-
A-3333333333333333-77777777-55555555-3333333333333333-00000000-
E-1111111111111111-55555555-33333333-1111111111111111----------

Chorus 3 count.
Electric Guitar
  F5               A5       G5       F5               D2/A
E-----------------------------------------------------0000000000000000-
B-----------------------------------------------------3333333333333333-
G-----------------------------------------------------2222222222222222-
D-3333333333333333-77777777-55555555-3333333333333333-0000000000000000-
A-3333333333333333-77777777-55555555-3333333333333333-0000000000000000-
E-1111111111111111-55555555-33333333-1111111111111111------------------

Transition Riff (x1)
Acoustic Guitar

Ending (x1)
Acoustic Guitar
E---------------|-----|-00-
B---------------|-----|-00-
G---------------|-----|-22-
D-----2p0---0---|-----|-22-
A-0-------3-----|---3-|-00-
E-------------3-|-1---|----

Comments about this tab

Cheese_Monkey - 2006-01-30

Hey good tab, i love it


Add a comment/correction

Complimentary Christian Ringtones
Dadamobile and CGR have teamed up to bring your favorite Christian artists right to your phone. Sign up today and get 10 complementary ringtones!
Tab Country
Did you know CGR has a sister site w/ country guitar tabs? Well we do! Its called Tab Country. It has a great archive with a lot of country tabs.
Rockin Tabs
Are you looking for a site that has rock guitar tabs? Then Rockintabs.com is the place for you. It is a budding site with many rock guitar tabs. Submit your tab today.
Tab Gallery
Tab Gallery has a compilation of christian, rock, and country tabs all in one place. Come visit us.