Guitar Tabs
song title    band name

Join Us Today!

Don't strum alone...
be a part of the largest online Christian music community. Browse thousands of guitar tabs and chat w/ musicians like yourself.


It's Free!

This tab has been rated a 2.67 out of 5 for accuracy. (3 votes)Sorry, but you must be logged in to rate this tab.
Click here to log-in, or you can click here to register.
(Registration is free)

All songs owned by corresponding publishing company. If you make copies of any song on this website, be sure to report your usage to CCLI.
Submitted by: Mavrik

Now is the Time 
By Delirious 
From 'The Mission Bell'

Stu G showin some good solo stuff near the end,

EADGBE Tuning.

I cant take all the cred for working this out, My mate mikey worked most
of it out i just did the tabbing.And help work out one or two chords.

Intro and verse riff.

E:--------------------------------------------------
B:--------------------------------------------------
G:-10--8--8--8--8-10--8--8--8--8-2-2-2-2-2-4-4-8-8-8
D:-10-10-10-10-10-10-10-10-10-10-2-2-2-2-2-4-4-8-8-8
A:--------------------------------------------------
E:--------------------------------------------------

Just repeat until the chorus.

Before the chorus there is a little bit that leads into the chorus here t'is

E---------------------------------
B---------------------------------
G-10-10-10-10-10--11-11--12-12-12-
D-10-10-10-10-10--11-11--12-12-12-
A---------------------------------
E---------------------------------


Cause now is the time. The chords for the chorus i think is

Chorus:

C, G, D, Dsus4. Repeat that and then C, G, C, G, Asus4.

It sounds better playing them open rather than Barred, but t'is up to u.

Bridge bit.

E:----------------------------------------
B:----------------------------------------
G:5-5-x-x-5-5-x-x-5-7-9-9-x-x-9-9-x-x-9-7-
D:5-5-x-x-5-5-x-x-5-7-9-9-x-x-9-9-x-x-9-7-
A:3-3-x-x-3-3-x-x-3-5-7-7-x-x-7-7-x-x-7-5-
E:---------------------------------------- Just keep repeating this.

chorus

End

We are still working ot the Solo. I hope this helps

God Bless

Comments about this tab

No comments/corrections found. Add your own

Complimentary Christian Ringtones
Dadamobile and CGR have teamed up to bring your favorite Christian artists right to your phone. Sign up today and get 10 complementary ringtones!
Tab Country
Did you know CGR has a sister site w/ country guitar tabs? Well we do! Its called Tab Country. It has a great archive with a lot of country tabs.
Rockin Tabs
Are you looking for a site that has rock guitar tabs? Then Rockintabs.com is the place for you. It is a budding site with many rock guitar tabs. Submit your tab today.
Tab Gallery
Tab Gallery has a compilation of christian, rock, and country tabs all in one place. Come visit us.