Guitar Tabs
song title    band name

Join Us Today!

Don't strum alone...
be a part of the largest online Christian music community. Browse thousands of guitar tabs and chat w/ musicians like yourself.


It's Free!

This tab has been rated a 4.33 out of 5 for accuracy. (3 votes)Sorry, but you must be logged in to rate this tab.
Click here to log-in, or you can click here to register.
(Registration is free)

All songs owned by corresponding publishing company. If you make copies of any song on this website, be sure to report your usage to CCLI.
Submitted by: I Rock 4 Christ

Artist: Thousand Foot Krutch
Song: When in Doubt
Album: Set it Off
Transcripted by: Calvin Wuskynyk (lkpack@telus.net)

The other tab had some wrong notes every now and then, so this is my re-write.

intro: (clean)

E---------------------------------------- x6
B-------------------------------------------
G------7------------------------------------
D----7---7---------7------9-----------------
A--55-5-5-5----7--7-----9---9-----5--5------
E------------55-55----77-7-7-7--33-33-3/5---

pre-verse: (lead)

E------------------------------------ x2
B---------------------------------------
G---------------------------------------
D--777-55-4--777-55-4--777-55-4--44-5---
A------------------------------55-------
E---------------------------------------

verse: (lead)

E------------------------------------ x4
B---------------------------------------
G--7-77777------------------------------
D--7-77777--7-77777--9-99999--5-55555---
A--5-55555--7-77777--9-99999--5-55555---
E-----------5-55555--7-77777--3-33333---

chorus: (lead)

E---------------------------------------------- x2
B-------------------------------------------------
G--7-77777----------------------------------------
D--7-77777--7-77777--9-99999--5-55/7--------------
A--5-55555--7-77777--9-99999--5-55/7--------------
E-----------5-55555--7-77777--3-33/5--------------

pre-verse: (lead)
E------------------------------------ x2|------------
B---------------------------------------|------------
G---------------------------------------|--------7---
D--777-55-4--777-55-4--777-55-4---44-5--|-3------7---
A------------------------------555------|-3------5---
E---------------------------------------|-5----------

solo: (lead)

E---------------------------- x3|-------------------------------------
B-------------------------------|-------------------------------------
G-------------------------------|-------------------------------------
D--777777777777777777-555-4-5---|--77777777777777777777777777777777---
A-------------------------------|--------------------00000000000000---
E-------------------------------|-------------------------------------

E--------------------------------------- x2|-------
B------------------------------------------|-------
G--7---------------------------------------|--77---
D--7-----------7-----------9-----------5---|--77---
A--5-----------7-----------9-----------5---|--55---
E--------------5-----------7-----------3---|-------

Then you do the chorus + pre-verse again

outro: (lead)

E----------------------------- x2|----------
B--------------------------------|----------
G--777777------------------------|----------
D--777777-777777-999999-555555---|--55555---
A--555555-777777-999999-555555---|--55555---
E---------555555-777777-333333---|--33333---

And thats all i got. It may not be 100% correct but hey cut me some slack its 
the first song ive ever figured out by ear, and this is the first tab ive ever
made. So yeah, have fun with it. and GOD BLESS YOU ALL!!!




Comments about this tab

I Rock 4 Christ - 2006-01-21

will sombody please add a comment to tell me how i did??!!!


Dani_Boy - 2006-03-27

I'd love to add I comment, I've just never heard the song. I've got
the albums Phenomenon and The Art of Breaking and I've submitted
three tabs so far. They are relatively new I guess, but I got one
comment on one of the tabs and no ratings. What I'm trying to say
is that I think I know how you feel. Wish I could tell you how
good your tab is.


Dani_Boy - 2006-03-27

Looks like a really good tab though, especially considering it's
your first tab. I tried to play the intro (even though I haven't
heard the song) and it sounded really nice to me. Hope someone
who's actually heard the song can tell you how accurate it is.


ice_wiz - 2006-03-28

I've heard the song and I'm listening to it right now, It's pretty good not a whole lot of difference from the other tabs.


SHARK - 2006-04-20

it is pretty close but there is palm muting in the chorus.
sorry u dont have set it off Dani Boy its a great album!


Dani_Boy - 2006-04-24

Now I've got it, haha. But you know that already SHARK :)


|)rink)v(tn|)ew - 2006-09-01

deffinately needs to be in drop D...and in the intro, It's awesome how it, is but if you want to be precice, than there are some things to add to the intro that wil make it sound more like the CD...

you might recognize this correction from the tab up from this one..."sk84him" was my old login name but then i forgot my password and didn't have the same e-mail and stuff but...that old correction was a long time ago and i didn't really have much in my head then...so this still think is really really close!

this is the second progression...the one right b4 trevor starts his vocal magic
e|-------------------------------------------------------------------
b|----------7--------------------------------------------------------
g|----------7---7-----------7-7--------------------------------------
d|------7---------7-------------7----------9\109-7-------------------
a|--5-5---5-------------7-------------9----9~~~~--------7-----7------
d|------------------7-7---7-------9-9---9-----------5-5---5-5---5/7--

it's sounds almost perfect, but i'll let you guys be the judge...


Add a comment/correction

Complimentary Christian Ringtones
Dadamobile and CGR have teamed up to bring your favorite Christian artists right to your phone. Sign up today and get 10 complementary ringtones!
Tab Country
Did you know CGR has a sister site w/ country guitar tabs? Well we do! Its called Tab Country. It has a great archive with a lot of country tabs.
Rockin Tabs
Are you looking for a site that has rock guitar tabs? Then Rockintabs.com is the place for you. It is a budding site with many rock guitar tabs. Submit your tab today.
Tab Gallery
Tab Gallery has a compilation of christian, rock, and country tabs all in one place. Come visit us.