Guitar Tabs
song title    band name

Join Us Today!

Don't strum alone...
be a part of the largest online Christian music community. Browse thousands of guitar tabs and chat w/ musicians like yourself.


It's Free!

This tab has been rated a 4.50 out of 5 for accuracy. (2 votes)Sorry, but you must be logged in to rate this tab.
Click here to log-in, or you can click here to register.
(Registration is free)

All songs owned by corresponding publishing company. If you make copies of any song on this website, be sure to report your usage to CCLI.
Submitted by: heavymetalsaves

This is a great song by David Crowder.. His new album Rocks like a mother...
this is just part of it however.. the main verse and chorus riffs its pretty
heavy.. it goes hard.. not like diffuculty.. like the riff itself sounds 
great.. 

its a whole step down on cd i thnking...


Verse/ Main Riff
e--------------------------------------------------
B--------------------------------------------------
G---9---9---9/7/9-12-----9--9--9/7/9/--12--14--1414
D---9---9---9/7/9-12-----9--9--9/7/9/--12--14--1414
A---7---7---7/5/7-10-----7--7--7/5/7/--10--12--1212
E---0---0---0------------0--0--0-------------------



Chorus/Heavy Riff
e--------------------------------------
B--------------------------------------
G--------------------------------------
D--------------------------------------
A--7--7--7p5-----5-----5-----------0--2
E-------------7-----7-----7--5--3------

so yeah.. thats that...
its pretty good song...


ryan@everittcompany.com
for questions.. concerns..

Comments about this tab

heavymetalsaves - 2006-04-11

i made a mistake. its a half step down
otherwise.. perfect


chronicles1289 - 2006-08-23

I think a few of us wanted to Learn part of the Be Lifted Bluegrass part...
So, I figured out the chords, just strum really fast and incoherently.
The transition from Hope Rising is right after the chorus, move down to an A.
The entire progression is A C D ending on a D.
Going into I Saw the Light


Add a comment/correction

Complimentary Christian Ringtones
Dadamobile and CGR have teamed up to bring your favorite Christian artists right to your phone. Sign up today and get 10 complementary ringtones!
Tab Country
Did you know CGR has a sister site w/ country guitar tabs? Well we do! Its called Tab Country. It has a great archive with a lot of country tabs.
Rockin Tabs
Are you looking for a site that has rock guitar tabs? Then Rockintabs.com is the place for you. It is a budding site with many rock guitar tabs. Submit your tab today.
Tab Gallery
Tab Gallery has a compilation of christian, rock, and country tabs all in one place. Come visit us.