Guitar Tabs
song title    band name

Join Us Today!

Don't strum alone...
be a part of the largest online Christian music community. Browse thousands of guitar tabs and chat w/ musicians like yourself.


It's Free!

This tab has been rated a 3.75 out of 5 for accuracy. (4 votes)Sorry, but you must be logged in to rate this tab.
Click here to log-in, or you can click here to register.
(Registration is free)

All songs owned by corresponding publishing company. If you make copies of any song on this website, be sure to report your usage to CCLI.
Submitted by: Adam K

Title: A Boy Brushed Red Living in Black and White
Artist: Underoath
Album: They're Only Chasing Safety (SE) 
Drop D Tuning D-A-D-G-B-E

palm mute=..., etc.
b=bend

Verse 1
Gtr. 2
A[-4/4/4/4/4/4/4/4/4/4/4/4/4/4/4/4/0/0/0/0/0/0/0/0/0/0/0/0/0/0/0/0-]
   ...............................................................
A[-2/2/2/2/2/2/2/2/2/2/2/2/2/2/2/2--------------------------------]
D[--------------------------------4/4/4/4/4/4/4/4/4/4/4/4/4/4/4/4-]
   ..............................................................
Then
Gtr. 2
A[-4/4/4/4/4/4/4/4/4/4/4/4/4/4/4/4/0/0/0/0/0/0/0/0/0/0/0/0/0/0/0/0-]
   ...............................................................
A[-2/2/2/2/2/2/2/2/2/2/2/2/2/2/2/2--------------------------------]
D[--------------------------------4/4/4/4/4/4/4/4/4/4/4/4/4/4/4/4-]
   ..............................................................
Gtr. 1
(the higher D-string)
D[-2/2/2/2/2/2/2/2/2/2/2/2/2/2/2/2/6/6/6/6/6/6/6/6/6/6/6/6/6/6/6/6-]
   ...............................................................
B[--------------------------------------------------4/4/4/4bbbbb-]
G[--------------------------------6/6/6/6/6/6/6/6/6/6/6/6/6bbbbb-]
D[-4/4/4/4/4/4/4/4/4/4/4/4/4/4/4/4-------------------------------]
   ...........................................

Interlude
Both guitars
B[-5----5----4---------]
G[-6----6----4----6----]
D[-6----6----4----6----]
A[-4----0----2----4----]
D[----------------4----]

Verse 2
Gtr. 2
D[-4/4/4--4/4/4----4/4/4--4/4/4----4/4/4--4/4/4----4/4/4--4/4/4---]
A[-4/4/4--4/4/4----0/0/0--0/0/0----2/2/2--2/2/2----4/4/4--4/4/4---]
D[-------------------------------------------------4/4/4--4/4/4---]
   .....  .....    .....  .....    .....  .....    .....  .....
Gtr. 1
G[-6/6/6----6/6/6/6--------]
D[-----------------6/6/6---]x4
Then
Gtr. 2
D[-4/4/4/4/4/4/4/4/4/4/4/4/4/4/4/4/4/4/4/4/4/4/4/4/4/4/4/4/4/4/4/4-]
A[-4/4/4/4/4/4/4/4/4/4/4/4/4/4/4/4/0/0/0/0/0/0/0/0/0/0/0/0/0/0/0/0-]
   ...............................................................
D[-4/4/4/4/4/4/4/4/4/4/4/4/4/4/4/4/4/4/4/4/4/4/4/4/4/4/4/4/4/4/4/4-]
A[-2/2/2/2/2/2/2/2/2/2/2/2/2/2/2/2/4/4/4/4/4/4/4/4/4/4/4/4/4/4/4/4-]
D[---------------------------------4/4/4/4/4/4/4/4/4/4/4/4/4/4/4/4-]
   ...............................................................
Gtr. 1
E[-----0--------0----]
B[-4b--7----4b--9----]x2
G[-6b--6----6b--6----]

Interlude
Both guitars
B[-5----5----4---------]
G[-6----6----4----6----]
D[-6----6----4----6----]
A[-4----0----2----4----]x2
D[----------------4----]
Then
Gtr. 1
B[-4b--]
G[-6b--]
Then
Gtr. 2
D[--9--------6--------]
A[--7--------4--------]
D[--7--------4--------]
Gtr. 1
B[-12---9----7------4b--12---9--]
G[--9---9----9------6b---9---9--]
Then
both guitars
G[-6----6------]
D[-6----6---9--]
A[-4----4--11--]
D[-4----4---9--]

Chorus
Both guitars
G[-6--6--6--6--]
D[-6--6--6--6--]
A[-4--0--4--0--]
D[-------4-----]

E[-------------0-]
B[-------------4-]
G[-6--6--6--6--6-]
D[-6--6--6--6--6-]
A[-4--0--4--0--0-]
D[-------4-------]
            ...

G[-6--6--6--6--]
D[-6--6--6--6--]
A[-4--0--4--0--]x2
D[-------4-----]

Verse 3
Gtr. 2
A[-4/4/4/4/4/4/4/4/4/4/4/4/4/4/4/4/0/0/0/0/0/0/0/0/0/0/0/0/0/0/0/0-]
   ...............................................................
A[-2/2/2/2/2/2/2/2/2/2/2/2/2/2/2/2--------------------------------]
D[--------------------------------4/4/4/4/4/4/4/4/4/4/4/4/4/4/4/4-]
   ..............................................................

Gtr. 1
(the higher D-string)
D[-2/2/2/2/2/2/2/2/2/2/2/2/2/2/2/2/6/6/6/6/6/6/6/6/6/6/6/6/6/6/6/6-]
   ...............................................................
B[--------------------------------------------------4/4/4/4bbbbb-]
G[--------------------------------6/6/6/6/6/6/6/6/6/6/6/6/6bbbbb-]
D[-4/4/4/4/4/4/4/4/4/4/4/4/4/4/4/4-------------------------------]
   ...........................................
Then
Gtr. 2
D[-2/2/2/2/2/2/2/2/2/2/2/2/2/2/2/2/6/6/6/6/6/6/6/6/6/6/6/6/6/6/6/6-]
A[-4/4/4/4/4/4/4/4/4/4/4/4/4/4/4/4/0/0/0/0/0/0/0/0/0/0/0/0/0/0/0/0-]
   ...............................................................
G[---------------------------------6/6/6/6/6/6/6/6/6/6/6/6/6/6/6/6-]
D[-4/4/4/4/4/4/4/4/4/4/4/4/4/4/4/4/4/4/4/4/4/4/4/4/4/4/4/4/4/4/4/4-]
A[-2/2/2/2/2/2/2/2/2/2/2/2/2/2/2/2/4/4/4/4/4/4/4/4/4/4/4/4/4/4/4/4-]
D[---------------------------------4/4/4/4/4/4/4/4/4/4/4/4/4/4/4/4-]
Gtr. 1
E[-----0--------0----]
B[-4b--7----4b--9----]x2
G[-6b--6----6b--6----]

Interlude
Gtr. 1
B[-4b--]
G[-6b--]
Then
Gtr. 2
D[--9--------6--------]
A[--7--------4--------]
D[--7--------4--------]
Gtr. 1
B[-12---9----7------4b--12---9--]
G[--9---9----9------6b---9---9--]
Then
both guitars
G[-6----6------]
D[-6----6---9--]
A[-4----4--11--]
D[-4----4---9--]

Chorus

Bridge
E[---------0/0/0---------0/0/0---------0/0/0---------0/0/0-]
B[---------4/4/4---------4/4/4---------4/4/4---------4/4/4-]
G[-6/6/6/6-6/6/6-6/6/6/6-6/6/6-6/6/6/6-6/6/6-6/6/6/6-6/6/6-]
D[-6/6/6/6-------6/6/6/6-------6/6/6/6-------6/6/6/6-------]
A[-0/0/0/0-------0/0/0/0-------4/4/4/4-------4/4/4/4-------]x2
D[-----------------------------4/4/4/4-------4/4/4/4-------]
Then
G[-6----6-]
D[-6----6-]
A[-0----4-]x2
D[------4-]

Chorus 2
Gtr. 2
E[-0--0--0--0---0--0--0--]
B[-0--0--0--0---0--0--0--]
G[-6--6--6--6---6--6--6--]
D[-6--6--6--6---6--6--6--]
A[-4--0--4--0---4--0--4--]
D[-------4------------4--]
Gtr. 1
E[-11-14/16--11-----11-----11-------11-14/16--11-------]
B[-------------12-----12-----12------------------12----]
G[---------------13-----13-----13-------------------13-]

Chorus

Ending
B[-5--5--5--5--]
G[-6--6--6--6--]
D[-6--6--6--6--]
A[-4--0--4--0--]x2
D[-------4-----]
Then
G[-6/6-6-6-]
D[-6/6-4-4-]
A[-4/4-4-4-]


Tabbed by Adam K

Comments about this tab

sodium_boy - 2006-06-14

this tab kinda confuses me.
sorry.
= ]


ice_wiz - 2006-07-28

It's good, but alot of your tabs are a mess, Adam.


sac346 - 2006-08-18

this tab isn't confusing, he just messed up on the top two intro tabs the top line where it says A should be D. sac346


sac346 - 2006-08-18

Sorry, about 5 secs after I posted my first comment I reallized that the top A is a whole new line. It's tabbed right. :-/


Ooblar - 2007-05-05

This tab is kind of confussing. :( it hurts my head when i try to read it
could u try and space things out?


Add a comment/correction

Complimentary Christian Ringtones
Dadamobile and CGR have teamed up to bring your favorite Christian artists right to your phone. Sign up today and get 10 complementary ringtones!
Tab Country
Did you know CGR has a sister site w/ country guitar tabs? Well we do! Its called Tab Country. It has a great archive with a lot of country tabs.
Rockin Tabs
Are you looking for a site that has rock guitar tabs? Then Rockintabs.com is the place for you. It is a budding site with many rock guitar tabs. Submit your tab today.
Tab Gallery
Tab Gallery has a compilation of christian, rock, and country tabs all in one place. Come visit us.