Guitar Tabs
song title    band name

Join Us Today!

Don't strum alone...
be a part of the largest online Christian music community. Browse thousands of guitar tabs and chat w/ musicians like yourself.


It's Free!

This tab has been rated a 5.00 out of 5 for accuracy. (4 votes)Sorry, but you must be logged in to rate this tab.
Click here to log-in, or you can click here to register.
(Registration is free)

All songs owned by corresponding publishing company. If you make copies of any song on this website, be sure to report your usage to CCLI.
Submitted by: iamnotfamous

HERE I AM TO WORSHIP
by Tim Hughes

OPTIONS: 
CAPO 0 KEY OF D
CAPO 1 KEY OF D=D# 
CAPO 2 KEY OF D=E

   (VERSES 1&2)
   D            Asus              Em                   
1  
2  
   F     F  G   E     E   F       G    G  F  E^D  D                   
E--------------------------------|--------------------|
B--------------------------------|--------------------|
G-----------0--------------------|0----0--------------|
D--4-----4------2-----2---4------|--------4--2^0--0---|
A--------------------------------|--------------------|
E--------------------------------|--------------------|

   D            Asus        D/G
1  
2  
   F   F     G  E    E   F  D       
E--------------------------|-----|
B--------------------------|-----|
G------------0-------------|-----|
D--4---4--------2----2---4-|0~---|
A--------------------------|-----|
E--------------------------|-----|

   D             Asus          Em                                  
1  
2  
   F    F   G    E    E    F   G     F   E  ^D D   
E-----------------------------|-------------------|
B-----------------------------|-------------------|
G-----------0-----------------|0------------------|
D--4----4--------2----2---h4--|------4---2--p0-0--|
A-----------------------------|-------------------|
E-----------------------------|-------------------|

   D               Asus            D/G 
1  
2  
   F    F   G      E    E     F    D  
E---------------------------------|----|
B---------------------------------|----|
G-----------0---------------------|----|
D--4----4----------2----2-----4---|0~--|
A---------------------------------|----|
E---------------------------------|----|
			
   (CHORUS)
        	  D                    A/C#                  
   
  (A) G    F#F# E  F# F#   G    F#F# E  E   E    G    F#F# E  
E-(2)-------------|--------------------|---------------------|
B-(3)-------------|--------------------|---------------------|
G-(2)-0-----------|--------0-----------|---------0-----------|
D----------4-4--2-|4--4---------4-4--2-|2---2---------4-4--2-|
A-(0)-------------|--------------------|---------------------|
E-----------------|--------------------|---------------------|

   D/F#               G
   
   F#  F#   F#     A  D
E------------------------|
B------------------------|
G------------------2-----|
D--4---4----4---------0~-|
A------------------------|
E------------------------|

   (CHORUS continues)
	                   D                      A                      
    
   (D) G      G  F# F# E    F#   F#  G  F# F# E    E   E    G  F# F# E    
E--------------------------|----------------------|----------------------|
B--------------------------|----------------------|----------------------|
G------0------0------------|---------0------------|---------0------------|
D--(0)-----------4--4--2---|4----4------4--4--2---|2---2-------4--4--2---|
A--------------------------|----------------------|----------------------|
E--------------------------|----------------------|----------------------|

   D/F#           G
  
   F#  F#  F#  A  D   
E-------------------| 
B-------------------|  
G--------------2----| 
D--4---4---4------0~| 
A-------------------| 
E-------------------| 

   (BRIDGE)
            A      D        G               A      D        G 
   
  (A)  F#   E  E   F#   A   G    F# E    D  E   E  F#  A  G   F#   E
E-------------|-----------------|--------------|------------------------
B-------------|-----------------|--------------|------------------------
G-------------|---------2---0---|--------------|-------2--0-------------
D------4----2-|2---4------------|4--2----0--2--|2--4----------4----2~---
A-(0)---------|-----------------|--------------|------------------------
E-------------|-----------------|--------------|------------------------	

   (BRIDGE) *KEY CHANGE 1 OCTAVE HIGHER 
            A      D        G               A      D         G 
   
  (A)  F#   E  E   F#   A   G    F# E    D  E   E  F#  A  G   F#   E
E------2----0-|0---2----5---3---|2--0-------0--|0--2---5--3---2----0----
B-------------|-----------------|--------3-----|------------------------
G-(2)---------|-----------------|--------------|------------------------
D-------------|-----------------|--------------|------------------------
A-------------|-----------------|--------------|------------------------
E-------------|-----------------|--------------|------------------------

///////////////////////////////////////////////////////////////////////////////
///////////////////////////////////////////////////////////////////////////////

HERE I AM TO WORSHIP
by Tim Hughes

ORIGINAL KEY:E

   (VERSES 1&2)
   E            Bsus              F#m                  
1  
2  
   G#    G# A   F#    F#  G#      A    A  G# F^E  E                         
E--------------------------------|--------------------|
B--------------------------------|--------------------|
G--1-----1--2-------------1------|2----2--1-----------|
D---------------4-----4----------|-----------4^2--2---|
A--------------------------------|--------------------|
E--------------------------------|--------------------|

   E            Bsus        E/A
1  
2  
   G#  G#    A  F#   F#  G# F# 
E--------------------------|----|
B--------------------------|----|
G--1---1-----2-----------1-|----|
D---------------4----4-----|2~--|
A--------------------------|----|
E--------------------------|----|

   E             Bsus          F#m                 
1 
2  
   G#   G#  A    F#   F#   G#  A     G#  F# ^E C   
E-----------------------------|-------------------|
B-----------------------------|-------------------|
G--1----1---2--------------1--|2-----1------------|
D----------------4----4-------|----------4--^2-2--|
A-----------------------------|-------------------|
E-----------------------------|-------------------|

   E               Bsus            E/A
1  
2  
   G#   G#  A      F#   F#    G#   E  
E---------------------------------|----|
B---------------------------------|----|
G--1----1---2-----------------1---|----|
D------------------4----4---------|2~--|
A---------------------------------|----|
E---------------------------------|----|

   (CHORUS)
           	   E                    B/D#                  
    
   B  A    G# G#F# G# G#    A   G#G# F# F#  F#   A    G#G# F#   
E-(5)-------------|--------------------|---------------------|
B-(5)-------------|--------------------|---------------------|
G-(4)-2----1-1----|1--1----2----1-1----|---------2----1-1----|
D---------------4-|------------------4-|4---4--------------4-|
A--2--------------|--------------------|---------------------|
E-----------------|--------------------|---------------------|

   E/G#               A
   
   G#  G#   G#     B  C
E------------------------|
B------------------0-----|
G--1---1----1------------|
D---------------------2~-|
A------------------------|
E------------------------|

  (CHORUS continues)

  	                    E                      B                      
    
   E   A      A  G# G# F#   G#   G#  A  G# G#  F#  F#  F#   A  G# G#  F#    
E--------------------------|----------------------|----------------------|
B--------------------------|----------------------|----------------------|
G------2------2--1--1------|1----1---2--1--1------|---------2--1--1------|
D-(2)------------------4---|------------------4---|4---4-------------4---|
A--------------------------|----------------------|----------------------|
E--------------------------|----------------------|----------------------| 

   E/G#           A
   
   G#  G#  G#  B  E   
E-------------------| 
B-------------------| 
G--1---1---1---4----| 
D-----------------2~| 
A-------------------| 
E-------------------| 

   (BRIDGE)
            B      E        A               B      E        A 
   
  (B) G#    F# F#  G#   B   A    G# F#   E  F#  F# G#  B A   G#   F#
E-------------|-----------------|--------------|------------------------
B-------------|-----------------|--------------|------------------------
G-----1-------|----1----4---2---|1-------------|---1---4-2---1----------
D-----------4-|4----------------|---4----2--4--|4-----------------4~----
A-(2)---------|-----------------|--------------|------------------------
E-------------|-----------------|--------------|------------------------	

   (BRIDGE) *KEY CHANGE 1 OCTAVE HIGHER 
            A      D        G               A      D         G 
   
  (B)  G#   F# F#  G#   B   A    G# F#   E  F#  F# G#  B  A   G#    F#
E------4----2-|2---4----7---5---|4--2----1--2--|2--4---7--5---4----2----
B-------------|-----------------|--------------|------------------------
G-(4)---------|-----------------|--------------|------------------------
D-------------|-----------------|--------------|------------------------
A-------------|-----------------|--------------|------------------------
E-------------|-----------------|--------------|------------------------

_______________
NOTES: 
h  =hammer on
p  =pull off
~  =let it ring out
( )=optional note to play
Tab relates to song notes only.

INFO   :(VERSES 1&2)
CHORDS : D            Asus              Em                   
VERSE 1:  
VERSE 2: 
NOTES  : F     F  G   E     E   F       G    G  F  E^D  D 

Comments about this tab

iamnotfamous - 2006-01-15

I noticed a typo-In the key of D, the note 'F' should be 'F#' in the verses.

Any other corrections, feel free to correct me or add on.

Also, I made it so that if you type the words in the verses section it should match.:D


WashburnGuitar9 - 2007-04-10

is this the actual sounding when he plays it? not the plucking but the chords? because i wanna play the chords and (i dont mean it to sound like the voice i mean like he part before the chorus like after the piano in the beginning) i really wanna play it so is this accurate, do you need a capo, and whats the tunning?


Add a comment/correction

Complimentary Christian Ringtones
Dadamobile and CGR have teamed up to bring your favorite Christian artists right to your phone. Sign up today and get 10 complementary ringtones!
Tab Country
Did you know CGR has a sister site w/ country guitar tabs? Well we do! Its called Tab Country. It has a great archive with a lot of country tabs.
Rockin Tabs
Are you looking for a site that has rock guitar tabs? Then Rockintabs.com is the place for you. It is a budding site with many rock guitar tabs. Submit your tab today.
Tab Gallery
Tab Gallery has a compilation of christian, rock, and country tabs all in one place. Come visit us.