Guitar Tabs
song title    band name

Join Us Today!

Don't strum alone...
be a part of the largest online Christian music community. Browse thousands of guitar tabs and chat w/ musicians like yourself.


It's Free!

This tab has been rated a 3.40 out of 5 for accuracy. (10 votes)Sorry, but you must be logged in to rate this tab.
Click here to log-in, or you can click here to register.
(Registration is free)

All songs owned by corresponding publishing company. If you make copies of any song on this website, be sure to report your usage to CCLI.
Submitted by: the ricksta

artist: demon hunter
song: Not Ready to Die
Album: Summer of Darkness
Solid State Records
Tuning: Drop B

sweet song, the first demon hunter song i ever heard.

Intro:
6-5-1-0-1-0--6-5-1-0-1-0--6-5-1-0-1-0--0-1-0-1-0-1-0
6-5-1-0-1-0--6-5-1-0-1-0--6-5-1-0-1-0--0-1-0-1-0-1-0  (2x)
6-5-1-0-1-0--6-5-1-0-1-0--6-5-1-0-1-0--0-1-0-1-0-1-0

Verse:
B|-1-0-0-0--1-0-0-0-1-0-0-7-1-- (4x)


1-0-0-0--1-0-0-0-1-0-0-7-1---------7-1-3      
1-0-0-0--1-0-0-0-1-0-0-7-1----(4x) 7-1-3      
1-0-0-0--1-0-0-0-1-0-0-7-1---------7-1-3

Prechorus:
just play open 
0-0-0--0-0-0--0-0-0---0-0-0--0-0-0--0-0-0 
0-0-0--0-0-0--0-0-0---0-0-0--0-0-0--0-0-0  (6x)
0-0-0--0-0-0--0-0-0---0-0-0--0-0-0--0-0-0

7-1-3
7-1-3
7-1-3
repeat first part of prechorus.

Chorus    (i just used the chords, listen to the song for rhythm)

5-1-8-3-
5-1-8-3-  (2x)
5-1-8-3-

Bridge (after 2nd chorus)

--7----3-1-----12-----12
-5----3------12-----12- 
5----1-----10-----10---

Comments about this tab

Garek4 - 2006-03-17

Pretty good tab, sounded pretty accurate to me when i played a little of it.
I found one problem. its in the bridge. Its sounds more like this

---7---3-1---12-12-
--7---1-----10-10--
-5---1----10--10---

Thats all I could find wrong. oh and maybe if someone could find out what the high-pitched bend thingy they do during the palm muting part, that would be jsut dandy.

Peace out.


Garek4 - 2006-03-17

oops sorry, made a mistake on my bridge thing
its
---7-
--5--
-5---
instead of the the other one


What5647 - 2006-04-17

actually, the bridge goes
--8----3-1-----12-----12
-5----1------10-----10-
5----1-----10-----10---
i'm sure it goes up to a g and not a f#. listen to the song, it's dissonance, not harmony.


CBentley9188 - 2006-06-18

Your intro is off but only slightly. It sounds great either way, but this is the way it sounds on the album.
|6-5---1-0-1-2--6-5---1-0-1-2--6-5---1-0-1-2--0-1-0-1-0-1-0|
|6-5---1-0-1-2--6-5---1-0-1-2--6-5---1-0-1-2--0-1-0-1-0-1-0|
|6-5---1-0-1-2--6-5---1-0-1-2--6-5---1-0-1-2--0-1-0-1-0-1-0|

|6-5---1-0-1-2--6-5---1-0-1-2--6-5---1-0-1-2|
|6-5---1-0-1-2--6-5---1-0-1-2--6-5---1-0-1-2|
|6-5---1-0-1-2--6-5---1-0-1-2--6-5---1-0-1-2|

other than that and the bridge, you've got yourself an awesome tab.


3rd Bassman - 2006-12-16

Yeah the bridge does go

--8----3-1-----12-----12
-5----1------10-----10-
5----1-----10-----10---

it sounds pretty good with a slight delay and stuff,
but then again i always cover songs completely different...


SpLlama - 2007-04-10

The chorus uses 9ths alot so not that the chords used aren't just plain power chords... Keep rocking for the Saviour! :-)


riffage67 - 2008-04-10

if this is any help to anyone the discordant diad they play in the bridge with the open strings is this:

|--------------|
|-----14-------|
|-----17-------|
|--------------|
|--------------|
|--------------|


riffage67 - 2008-04-11

good tab btw :)


Mr. Q - 2010-08-16

does nobody on the whole internet know the very beginning?!?


Add a comment/correction

Complimentary Christian Ringtones
Dadamobile and CGR have teamed up to bring your favorite Christian artists right to your phone. Sign up today and get 10 complementary ringtones!
Tab Country
Did you know CGR has a sister site w/ country guitar tabs? Well we do! Its called Tab Country. It has a great archive with a lot of country tabs.
Rockin Tabs
Are you looking for a site that has rock guitar tabs? Then Rockintabs.com is the place for you. It is a budding site with many rock guitar tabs. Submit your tab today.
Tab Gallery
Tab Gallery has a compilation of christian, rock, and country tabs all in one place. Come visit us.