Guitar Tabs
song title    band name

Join Us Today!

Don't strum alone...
be a part of the largest online Christian music community. Browse thousands of guitar tabs and chat w/ musicians like yourself.


It's Free!

This tab has not yet been rated for accuracy.Sorry, but you must be logged in to rate this tab.
Click here to log-in, or you can click here to register.
(Registration is free)

All songs owned by corresponding publishing company. If you make copies of any song on this website, be sure to report your usage to CCLI.
Weak, Feeble, Dying anti-christ
Horde

Tabbed by: Tim den Broeder
  Standard Tuning
  Both Guitars

  ***********************
      -NOTATION-
   x = mute 
  px = palm mute
   ~ = vibrato
  () = phantom note
      -may/maynot be 
       played every time.
  ***********************

  riff 1
  tempo: slow
  (let ring through-out)
   
  1||---------------------||
  2||----6--6------5--6---||
  3||----5--4------3--4---||
  4||----3--3------2--2---|| 4x
  5||---------------------||
  6||---------------------||

  riff 2
  tempo: medium
  (let ring through-out)

    	        4x			  4x			
  1||-----------||-----------||-----------||-----------||
  2||-----------||-----------||-----------||-----------||
  3||*--5-4----*||--5---5----||*--4-3----*||--4---4----||
  4||*------3--*||----3---3--||*------2--*||----2---2--|| 4x
  5||-----------||-----------||-----------||-----------||
  6||-----------||-----------||-----------||-----------||

  riff 3
  tempo: slow
  (let ring through-out)
		  
  1||-------------------------||
  2||------6------------------||
  3||------5-------3(~~)4(~)--||
  4||--3-------2--------------|| 4x
  5||-------------------------||
  6||-------------------------||

  riff 2
  tempo: medium
  (let ring through-out)

	        4x			  4x			
  1||-----------||-----------||-----------||-----------||
  2||-----------||-----------||-----------||-----------||
  3||*--5-4----*||--5---5----||*--4-3----*||--4---4----||
  4||*------3--*||----3---3--||*------2--*||----2---2--|| 4x
  5||-----------||-----------||-----------||-----------||
  6||-----------||-----------||-----------||-----------||

  riff 3
  tempo: slow
  (let ring through-out)
		  
  1||-------------------------||
  2||------6------------------||
  3||------5-------3(~~)4(~)--||
  4||--3-------2--------------|| 4x
  5||-------------------------||
  6||-------------------------||
  
  riff 1
  tempo: slow
  (let ring through-out)

  1||---------------------||
  2||----6--6------5--6---||
  3||----5--4------3--4---||
  4||----3--3------2--2---|| 4x
  5||---------------------||
  6||---------------------||

  riff 2
  tempo: medium
  (let ring through-out)

   	        4x			  4x			
  1||-----------||-----------||-----------||-----------||
  2||-----------||-----------||-----------||-----------||
  3||*--5-4----*||--5---5----||*--4-3----*||--4---4----||
  4||*------3--*||----3---3--||*------2--*||----2---2--|| 2x
  5||-----------||-----------||-----------||-----------||
  6||-----------||-----------||-----------||-----------||

  riff 4
  tempo: slow

  right guitar (panned center)
  1||----------||
  2||----------||
  3||--4/10px--||
  4||--2/-8px--||
  5||----------||
  6||----------||

  left guitar (mostly feed-back and random guitar noise)
  1||------------------||
  2||------------------||
  3||--4/-10x--x-------||
  4||--2/(8)x----(8)x--||
  5||------------------||
  6||------------------||

  TRANSCRIBER'S NOTE: This guitar tab is as close as the 
  origional version as possible. It is helpfull to listen
  to the recording for precise tempo. In closing, this song
  is ridiculously easy...if you cannot manage it then do not
  attempt to continue playing guitar. -- TdB

Comments about this tab

No comments/corrections found. Add your own

Complimentary Christian Ringtones
Dadamobile and CGR have teamed up to bring your favorite Christian artists right to your phone. Sign up today and get 10 complementary ringtones!
Tab Country
Did you know CGR has a sister site w/ country guitar tabs? Well we do! Its called Tab Country. It has a great archive with a lot of country tabs.
Rockin Tabs
Are you looking for a site that has rock guitar tabs? Then Rockintabs.com is the place for you. It is a budding site with many rock guitar tabs. Submit your tab today.
Tab Gallery
Tab Gallery has a compilation of christian, rock, and country tabs all in one place. Come visit us.