Guitar Tabs
song title    band name

Join Us Today!

Don't strum alone...
be a part of the largest online Christian music community. Browse thousands of guitar tabs and chat w/ musicians like yourself.


It's Free!

This tab has been rated a 3.00 out of 5 for accuracy. (1 vote)Sorry, but you must be logged in to rate this tab.
Click here to log-in, or you can click here to register.
(Registration is free)

All songs owned by corresponding publishing company. If you make copies of any song on this website, be sure to report your usage to CCLI.
Submitted by: Jon Foreman

-------------------------------------------------------------------------------
			     Stars - Switchfoot
-------------------------------------------------------------------------------
Tabbed by:Jon Foreman
Album:Nothing is Sound
Tuning:drop D DADGBe
 Guitar I Intro lick
e|------------------------------------------------------|---------------------------|
B|------------------------------------------------------|---------------------------|
G|------------------------------------------------------|---------------------------|
D|------------------------------------------------------|---------------------------|
A|-7--4-5-----4-----7---6-9-7-----4-5-----4----7-7-7-7--|--5-4-5-4-5-----4-----7----|
D|-0------0-0---0-0---0-------0-0-----0-0--0-0----------|------------0-0---0-0---0--|
                                  (Keep playing this 'till verse)
e|--------------------------------|-------------------------------------------|
B|--------------------------------|-------------------------------------------|
G|--------------------------------|-------------------------------------------|
D|--------------------------------|-------------------------------------------|
A|-6-9-7-----4-5-----4-----7-7-7--|-------------------------------------------|
D|-------0-0-----0-0---0-0--------|-------------------------------------------|
  Guitar II Intro lick (comes in after guitar 1 plays that intro a few times)
e|----------------------------------|-----------------------------------------|
B|----------------------------------|-----------------------------------------|
G|----------------------------------|-----------------------------------------|
D|----------------------------------|-------------------------2-2-2-----------|
A|-------4-5--------------------4-5-|-------4-5-------------------------------|
D|-0-2-0------4-7-4--2-5-2--0-2-----|-0-2-0------4-7-4---2-5-2----------------|
  Verse             (Each chord indicates 1 beat in the song, listen to song to figure 
strum patterns)
e|-2-2-2-2-2-2-2-2---3-3-3-3---2-2-2-2---3-3-3-3---3-3-3-3--------------------|
B|-3-3-3-3-3-3-3-3---3-3-3-3---3-3-3-3---3-3-3-3---3-3-3-3---3-3-3-3----------|
G|-2-2-2-2-2-2-2-2-------------2-2-2-2-----------------------2-2-2-2---2-2-2-2|
D|-----------------------------------------------------------2-2-2-2---2-2-2-2|
A|---------------------------------------3-3-3-3-----------------------0-0-0-0|
D|-------------------5-5-5-5-----------------------5-5-5-5--------------------|
  Pre Chorus        Chorus (for chorus each chord represents 1 beat, listen to song to 
exact strum pattern
e|-3--------------|-2-2-2-2-2-2-2-2--3-3-3-3-3-3-3-3--3-3-3-3--3-3-3-3--------|
B|-3-------3---3--|-3-3-3-3-3-3-3-3--3-3-3-3-3-3-3-3--3-3-3-3--3-3-3-3--------|
G|-----2---2---3--|-2-2-2-2-2-2-2-2-------------------------------------------|
D|-----2----------|-----------------------------------------------------------|
A|-----0---2---3--|-----------------------------------3-3-3-3-----------------|
D|-5--------------|------------------5-5-5-5-5-5-5-5-----------5-5-5-5--------|

e|-------------------------------2-2-2-2-2-2-2-2--3-3-3-3-3-3-3-3---3---------|
B|-------------------------------3-3-3-3-3-3-3-3--3-3-3-3-3-3-3-3---3---------|
G|-------------------------------2-2-2-2-2-2-2-2------------------------------|
D|---------------4-----2--2-2-2-----------------------------------------------|
A|-------4-5--------------------------------------------------------3---------|
D|-0-2-0-----4-7---2-5----------------------------5-5-5-5-5-5-5-5-------------|

e|--------------------------------------------------------------|
B|--------------------------------------------------------------|
G|--------------------------------------------------------------|
D|---------------4-----2------------------------4-----2--2-2-2--|
A|-------4-5----------------4-5--------4-5----------------------|
D|-0-2-0-----4-7---2-5---2-------0-2-0------4-7---2-5-----------|

Comments about this tab

jamforchrist123 - 2006-04-15

uhh... tabbed by Jon foreman? Are you SURE about that?


Adam K - 2006-04-15

I don't think Jon Foreman tabbed this.:P


Zboy4God - 2006-08-01

Jon tabbed this?


Add a comment/correction

Complimentary Christian Ringtones
Dadamobile and CGR have teamed up to bring your favorite Christian artists right to your phone. Sign up today and get 10 complementary ringtones!
Tab Country
Did you know CGR has a sister site w/ country guitar tabs? Well we do! Its called Tab Country. It has a great archive with a lot of country tabs.
Rockin Tabs
Are you looking for a site that has rock guitar tabs? Then Rockintabs.com is the place for you. It is a budding site with many rock guitar tabs. Submit your tab today.
Tab Gallery
Tab Gallery has a compilation of christian, rock, and country tabs all in one place. Come visit us.