Guitar Tabs
song title    band name

Join Us Today!

Don't strum alone...
be a part of the largest online Christian music community. Browse thousands of guitar tabs and chat w/ musicians like yourself.


It's Free!

This tab has been rated a 4.00 out of 5 for accuracy. (2 votes)Sorry, but you must be logged in to rate this tab.
Click here to log-in, or you can click here to register.
(Registration is free)

All songs owned by corresponding publishing company. If you make copies of any song on this website, be sure to report your usage to CCLI.
Submitted by: wakeslide77

Chris Tomlin - On Our Side

s - slide
h - hammer on
b - bend
pb - prebend
br - bend release
~ - vibrato

Chords CAPO 1
The whole song is one measure A7(Bb7 w/o capo)then one measure D(Eb w/o capo)

solo tabs not realative to capo
Intro 1st verse
E|-------------------------------------------------------------------||
B|-------------------------------------------------------------------||
G|-------------------------------------------------------------------||
D|-------------------------------------------------------------------||
A|-----6---6-5---3s5---5---5---5-------------------------------------||
E|-1-1---1-----1-----1---1---1---1-----------------------------------||

Chorus
listen to song to get timing and stumming down. Really easy to play
E|-------------------------------------------------------------------||
B|-11-11-11-11-11-11-11-11---9--9--9--9---8--8--8--8--8--------------||
G|-10-10-10-10-10-10-10-10--10-10-10-10--10-10-10-10-10--------------||
D|-------------------------------------------------------------------||
A|-------------------------------------------------------------------||
E|-------------------------------------------------------------------||


Main solo listen to song for timing

E|----------------------------------------6-6------------------------||
B|-------------9------------------------------9-6-9b-----------------||
G|------6-8-8b---pb8br-8-6-8-6-------6---------------8-6-8b8-6-8-6---||
D|---6h8-----------------------8-6-8---8-----------------------------||
A|-------------------------------------------------------------------||
E|-------------------------------------------------------------------||

E|-------------------------------------------------------------------||
B|-----------------9-9-9-9-9-9-9-9-9s11111111111111s1414141414141414-||
G|-------6--------101010101010101010s12121212121212s1515151515151515-||
D|-8-6-8---8~~~------------------------------------------------------||
A|-------------------------------------------------------------------||
E|-------------------------------------------------------------------||

E|------------------------17------17------17------17------17---------||
B|-1414141414141414--16h17---16h17---16h17---16h17---16h17-----------||
G|-1515151515151515--------------------------------------------------||
D|-------------------------------------------------------------------||
A|-------------------------------------------------------------------||
E|-------------------------------------------------------------------||

E|-------------------------------------------------------------------||
B|--9b-7b-6b-4b-3b---------------------------------------------------||
G|--11-9--8--6--5----------------------------------------------------||
D|-------------------------------------------------------------------||
A|-------------------------------------------------------------------||
E|-------------------------------------------------------------------||

Comments about this tab

wakeslide77 - 2006-01-04

I made on mistake on this tab that I just realized. On the intro I put the tab on the wrong strings. The riff should be place on the A and D strings, NOT the E and A. I am sorry for this mishap, but hey................. it happens.


wakeslide77 - 2006-01-09

I caught another mistake! What was I thinking. the correction is:
E|--------18------18------18------18------18---------||
B|---17h18---17h18---17h18---17h18---17h18-----------||
G|---------------------------------------------------||


RoCk4ChRiSt07 - 2006-04-17

so for the first mistake is the tab the same when it is played on the D string or did it change????


bspaulding - 2006-05-18

E|---------------------------17------17------17------17------17------||
B|-1414141414141414--16h17---16h17---16h17---16h17---16h17--17/---||
G|-1515151515151515-------------------------------------------------||
D|--------------------------------------------------------------------||
A|--------------------------------------------------------------------||
E|--------------------------------------------------------------------||

Add that slide at the end of this lick.


labradorkid - 2006-07-01

For those who prefer a more comfortable position play that verse pattern at the 6th fret of the low "E" string. The frets are closer together there and you are in the same area for the chorus and the solo! I am playing with the live version (never heard another one) and the verses are different from one another. The second verse is more funky.

PODxt Live/Godin FLat5X


Add a comment/correction

Complimentary Christian Ringtones
Dadamobile and CGR have teamed up to bring your favorite Christian artists right to your phone. Sign up today and get 10 complementary ringtones!
Tab Country
Did you know CGR has a sister site w/ country guitar tabs? Well we do! Its called Tab Country. It has a great archive with a lot of country tabs.
Rockin Tabs
Are you looking for a site that has rock guitar tabs? Then Rockintabs.com is the place for you. It is a budding site with many rock guitar tabs. Submit your tab today.
Tab Gallery
Tab Gallery has a compilation of christian, rock, and country tabs all in one place. Come visit us.