Guitar Tabs
song title    band name

Join Us Today!

Don't strum alone...
be a part of the largest online Christian music community. Browse thousands of guitar tabs and chat w/ musicians like yourself.


It's Free!

This tab has not yet been rated for accuracy.Sorry, but you must be logged in to rate this tab.
Click here to log-in, or you can click here to register.
(Registration is free)

All songs owned by corresponding publishing company. If you make copies of any song on this website, be sure to report your usage to CCLI.
Submitted by: sm5574

#----------------------------------PLEASE NOTE---------------------------------#
#This file is the authors own work and represents their interpretation of the #
#song. You may only use this file for private study, scholarship, or research. #
#------------------------------------------------------------------------------#

                             WHEN IT ALL COMES DOWN
                             As recorded by Mastedon
                         (From the 1990 Album LOFCAUDIO)

Words and Music by John & Dino Elefante (c) 1990
Transcribed by Scott Miller

Legends appear at the end.

NOTE: During the solo, pay attention to the rests!
There are a couple of sixteenth rests that will mess up the note count
if you arent careful. Rests have a note duration (S for sixteenth)
but no fret number.

A NOTE ON ACCURACY: All the notes are correct. I have changed my mind several
times over the fingering. This version reflects my current thinking on the most
logical and efficient way to play this. I may very well change my mind again
tomorrow. So feel free to adjust the fingering as you see fit.

Gtr I (E A D G B E) - Rhythm
Gtr II (E A D G B E) - Rhythm
Gtr III (E A D G B E) - Lead

 Intro
  Driving Rock Q=150
 4/4

  Gtr I
  E  E E E E E E E   E E E E E E E E   E E E E E E E E   E E E E E E E E
|------------------|-----------------|-----------------|------------------|
|------------------|-----------------|-----------------|------------------|
|-x--5-x-x-4-x-x-5-|-x-x-4-x-x-5-x-x-|-x-7-x-x-6-x-x-7-|-x-x-6-x-x-7-x-x--|
|------------------|-----------------|-----------------|------------------|
|------------------|-----------------|-----------------|------------------|
|------------------|-----------------|-----------------|------------------|
|
| Gtr II
| PM-------------------------------------------------------------------|
| E  E E E E E E E   E E E E E E E E   E E E E E E E E   E E E E E E E E
|------------------|-----------------|-----------------|------------------|
|------------------|-----------------|-----------------|------------------|
|------------------|-----------------|-----------------|------------------|
|---10-7---7-----7-|-----7-----7-----|-7---7---7-7---7-|-----7-----7---0--|
|--------8---7-8---|-7-8---7-8---7-8-|---7---7-----7---|-7-7---7-7---7----|
|-8----------------|-----------------|-----------------|------------------|


  E      E E E  E  E E E    E   E E E E E E E
|------------------------|--------------------|
|------------------------|--------------------|
|-x------5-x-x--4--x-x-5-|--x---x-4-x-x-5-x-x-|
|------------------------|--------------------|
|------------------------|--------------------|
|------------------------|--------------------|
|
| PM-------------------------------------------
| E      E E E  E  E E E    E   E E E E E E E
|------------------------|--------------------|
|------------------------|--------------------|
|------------------------|--------------------|
|-------10-7----7------7-|--------7-----7-----|
|------------8-----7-8---|--7---8---7-8---7-8-|
|-8----------------------|--------------------|
|
| Gtr III
| H            +H          +H         H
|------------------------|--------------------|
|------------------------|--------------------|
|------------------------|--------------------|
|-9b10=========(9)-------|-(9)r-------9-------|
|------------------------|--------------------|
|------------------------|--------------------|


   E     E   E    E   E  E E E     E  E E E   E   E E E
|------------------------------|------------------------|
|------------------------------|------------------------|
|--x-----7---x----x---6--x-x-7-|---x--x-6-x---x---7-x-x-|
|------------------------------|------------------------|
|------------------------------|------------------------|
|------------------------------|------------------------|
|
|-----------------------------------------------------|
|  E     E   E    E   E  E E E     E  E E E   E   E E E
|------------------------------|------------------------|
|------------------------------|------------------------|
|------------------------------|------------------------|
|--7---------7--------7--7---7-|--------7---------7---0-|
|--------7--------7--------7---|---7--7---7---7-----7---|
|------------------------------|------------------------|
|
|  Q        +E    E  +H           +H         +H
|------------------------------|------------------------|
|------------------------------|------------------------|
|------------------------------|------------------------|
|-11b12====(11)r-11-(11)-------|-(11)-------(11)-------|
|------------------------------|------------------------|
|------------------------------|------------------------|


  E      E E E  E  E E E    E   E E E E E E E
|------------------------|--------------------|
|------------------------|--------------------|
|-x------5-x-x--4--x-x-5-|--x---x-4-x-x-5-x-x-|
|------------------------|--------------------|
|------------------------|--------------------|
|------------------------|--------------------|
|
| PM-------------------------------------------
| E      E E E  E  E E E    E   E E E E E E E
|------------------------|--------------------|
|------------------------|--------------------|
|------------------------|--------------------|
|-------10-7----7------7-|--------7-----7-----|
|------------8-----7-8---|--7---8---7-8---7-8-|
|-8----------------------|--------------------|
|
| H            +H          +H         H
|------------------------|--------------------|
|------------------------|--------------------|
|------------------------|--------------------|
|-9b10=========(9)-------|-(9)r-------9-------|
|------------------------|--------------------|
|------------------------|--------------------|


   E     E   E    E   E  E E E     E  E E E   E    E    E   E
|------------------------------|--------------------------------|
|------------------------------|--------------------------------|
|--x-----7---x----x---6--x-x-7-|---x--x-6-x---x----7----x---x---|
|------------------------------|--------------------------------|
|------------------------------|--------------------------------|
|------------------------------|--------------------------------|
|
|-----------------------------------------------------------|
|  E     E   E    E   E  E E E     E  E E E   E    E    E   E
|------------------------------|--------------------------------|
|------------------------------|--------------------------------|
|------------------------------|--------------------------------|
|--7---------7--------7--7---7-|--------7----------7--------0---|
|--------7--------7--------7---|---7--7---7---7---------7-------|
|------------------------------|--------------------------------|
|
|                                             |---3---| |--3--|
|  Q        +E    E  +H           +H         +E  E    E E E   E
|------------------------------|--------------------------------|
|------------------------------|--------------------------------|
|------------------------------|--------------------------------|
|-11b12====(11)r-11-(11)-------|-(11)-------(11)--------7-8---9-|
|------------------------------|-----------------8---10---------|
|------------------------------|--------------------------------|


   E  E E E E E E E     E  E E E E E E E
|-------------------|--------------------|
|-------------------|--------------------|
|--x--5-x-x-4-x-x-5-|---x--x-4-x-x-5-x-x-|
|-------------------|--------------------|
|-------------------|--------------------|
|-------------------|--------------------|
|
|  PM-------------------------------------
|  E  E E E E E E E     E  E E E E E E E
|-------------------|--------------------|
|-------------------|--------------------|
|-------------------|--------------------|
|----10-7---7-----7-|--------7-----7-----|
|---------8---7-8---|---7--8---7-8---7-8-|
|--8----------------|--------------------|
|
|  W                   +H        H
|-------------------|--------------------|
|-------------------|--------------------|
|-------------------|--------------------|
|-10----------------|-(10)-------9-------|
|-------------------|--------------------|
|-------------------|--------------------|


   E     E   E    E   E  E E  E     E   E   E  E +H
|-------------------------------|------------------------||
|-------------------------------|------------------------||
|--x-----7---x----x---6--x-x--6-|---x---7---x--9-(9)----||
|-------------------------------|------------------------||
|-------------------------------|------------------------||
|-------------------------------|------------------------||
|
|----------------------------|
|  E     E   E    E   E  E E  E     W
|-------------------------------|------------------------||
|-------------------------------|------------------------||
|-------------------------------|------------------------||
|--7---------7--------7--7----7-|------------------------||
|--------7--------7--------7----|------------------------||
|-------------------------------|------------------------||
|
|  Q        +E    E  +Q.      E    +E   E  +E  E +H
|-------------------------------|------------------------||
|-------------------------------|------------------------||
|-------------------------------|--------------9-(9)----||
|-11b12====(11)r-11-(11)-----11-|-(11)-12-(12)-----------||
|-------------------------------|------------------------||
|-------------------------------|------------------------||


 Pre-Verse
  W                   E   E E E  E E  Q
|------------------|----------------------|
|------------------|-----10-x-x-10-x-10---|
|------------------|------9-x-x--9-x--9---|
|------------------|------7-x-x--7-x--7---|
|------------------|----------------------|
|------------------|----------------------|
|
|                         PM------------|
| Q  +E  E +Q   Q    +E   E E E  E E  E E
|------------------|----------------------|
|------------------|----------------------|
|-7--(7)-5-(5)--2--|-(2)---------2----2---|
|-7--(7)-5-(5)--2--|-(2)--2---2----2----2-|
|-5--(5)-3-(3)--0--|-(0)----0-------------|
|------------------|----------------------|
|
| W                   W
|------------------|----------------------|
|------------------|----------------------|
|------------------|----------------------|
|------------------|----------------------|
|------------------|----------------------|
|------------------|----------------------|


  W                   W
|------------------|--------------------------------------|
|------------------|--------------------------------------|
|------------------|--------------------------------------|
|------------------|--------------------------------------|
|------------------|--------------------------------------|
|------------------|--------------------------------------|
|
| Q  +E  E +Q   Q    +W
|------------------|--------------------------------------|
|------------------|--------------------------------------|
|-7--(7)-5-(5)-----|--------------------------------------|
|-7--(7)-5-(5)--5--|-(5)----------------------------------|
|-5--(5)-3-(3)--5--|-(5)----------------------------------|
|---------------3--|-(3)----------------------------------|
|
|                                                  ~~~~~
| W                   Q    S       +S    +E       +H
|------------------|------16pb17==(16)r-(16)b17==(16)r----|
|------------------|--------------------------------------|
|------------------|--------------------------------------|
|------------------|--------------------------------------|
|------------------|--------------------------------------|
|------------------|--------------------------------------|


  Gtr II
                         PM----------|
  Q  +E  E +Q   Q    +E  E E E E E E E   Q  +E  E +Q   E E
|------------------|-------------------|-------------------||
|------------------|-------------------|-------------------||
|-7--(7)-5-(5)--2--|-(2)---------------|-7--(7)-5-(5)--5-4-||
|-7--(7)-5-(5)--2--|-(2)---------------|-7--(7)-5-(5)------||
|-5--(5)-3-(3)--0--|-(0)---------------|-5--(5)-3-(3)------||
|------------------|-----0-2-3-2-0-2-3-|-------------------||


 Verse
                                                              ~~~~~~
  E E E E E E E E   E E E E E E E E   E E E E E E E E   E E E E +H
|-----------------|-----------------|-----------------|----------------|
|-----------------|-----------------|-----------------|----------------|
|-----------------|-----------------|-----------------|----------------|
|-5-x-x-5-x-5-x-x-|-5-x-x-5-x-5-x-x-|-5-x-x-5-x-5-x-x-|-5-x-x-5-(5)----|
|-----------------|-----------------|-----------------|----------------|
|-----------------|-----------------|-----------------|----------------|


  E E E E E E E E   E E E E E E E E   E E E E E E E E   E E E E E E +E   E
|-----------------|-----------------|-----------------|---------------------|
|-----------------|-----------------|-----------------|---------------------|
|-----------------|-----------------|-----------------|---------------------|
|-5-x-x-5-x-5-x-x-|-5-x-x-5-x-5-x-x-|-5-x-x-5-x-5-x-x-|-5-x-x-5-x-5-(5)S17-|
|-----------------|-----------------|-----------------|---------------------|
|-----------------|-----------------|-----------------|---------------------|


  E E E E E E E E   E E E E E E E E   E E E E E E E E
|-----------------|-----------------|-----------------|
|-----------------|-----------------|-----------------|
|-----------------|-----------------|-----------------|
|-----------------|-----------------|-----------------|
|-5-----5---5---5-|-3-----3---3---3-|-3-----3---3---3-|
|-3-x-x-3-x-3-x-3-|-1-x-x-1-x-1-x-1-|-0-x-x-0-x-0-x-0-|


  E E E E E E E E   E E E E E E E E   E E E E E E E E
|-----------------|-----------------|------------------|
|-----------------|-----------------|------------------|
|-----------------|-----------------|------------------|
|-----------------|-----------------|------------------|
|-3-----3---3---3-|-5-----5---5---5-|-3-----3---3---3--|
|-0-x-x-0-x-0-x-0-|-3-x-x-3-x-3-x-3-|-1-x-x-1-x-1-x-1--|


  W          +W           W          W          +W
|----------|------------|----------|----------|------------||--|
|----------|------------|-8--------|-7--------|-(7)--------||--|
|-8--------|-(8)--------|-7--------|-7--------|-(7)--------||--|
|-8--------|-(8)--------|-7--------|-7--------|-(7)--------||--|
|-6--------|-(6)--------|----------|----------|------------||--|
|----------|------------|----------|----------|------------||--|


 Chorus
    PM|   PM  PM|     PM|   PM  PM|     PM|   PM  PM|     PM|   PM  PM|
  E E E E E E E E   E E E E E E E E   E E E E E E E E   E E E E E E E E
|-3-----2---3-----|-3-----2---3-----|-3-----2---3-----|-3-----2---3-----|
|-3-----3---3-----|-3-----3---3-----|-3-----3---3-----|-3-----3---3-----|
|-0-0-0-0-0-0-0-0-|-0-0-0-0-0-0-0-0-|-0-----0---0-----|-0-----0---0-----|
|-----------------|-----------------|-----------------|-----------------|
|-----------------|-----------------|-3-3-3-3-3-3-3-3-|-3-3-3-3-3-3-3-3-|
|-----------------|-----------------|-----------------|-----------------|


    PM|   PM  PM|     PM|   PM  PM|     PM|   PM  PM|
  E E E E E E E E   E E E E E E E E   E E E E E E E E   H    H
|-0---------------|-0---------------|-3-----2---3-----|-----------|
|-1-----0---------|-1-----0---------|-3-----3---3-----|-----------|
|-2-----2---2-----|-2-----2---2-----|-0-0-0-0-0-0-0-0-|-----------|
|-2-----2---2-----|-2-----2---2-----|-----------------|-----------|
|-0-0-0-0-0-0-0-0-|-0-0-0-0-0-0-0-0-|-----------------|-----------|
|-----------------|-----------------|-----------------|-3----2----|


    PM|   PM  PM|     PM|   PM  PM|     PM|   PM  PM|     PM|   PM  PM|
  E E E E E E E E   E E E E E E E E   E E E E E E E E   E E E E E E E E
|-----------------|-2-----3---2-----|-3-----2---3-----|-3-----2---3-----|
|-0-----0---0-----|-3-----3---3-----|-3-----3---3-----|-3-----3---3-----|
|-0-----0---0-----|-2-----2---2-----|-0-----0---0-----|-0-----0---0-----|
|-2-----2---2-----|---0-0---0---0-0-|-----------------|-----------------|
|-2---------------|-----------------|-3-3-3---3---3-3-|-3-3-3---3---3-3-|
|-0-0-0---0---0-0-|-----------------|-----------------|-----------------|


    PM|   PM  PM|     PM|   PM  PM|     PM|   PM  PM|
  E E E E E E E E   E E E E E E E E   E E E E E E E E   E E E E H
|-0---------------|-----------------|-2-----0---2-----|-2-2-2--------||-|
|-1-----0---------|-0---------0-----|-3-----3---3-----|-3-3-3--------||-|
|-2-----2---2-----|-0-----2---0-----|-2-----2---2-----|-2-2-2--------||-|
|-2-----2---2-----|-0-----0---0-----|---0-0---0---0-0-|--------------||-|
|-0-0-0-0-0-0-0-0-|-----------------|-----------------|--------------||-|
|-----------------|---3-3---3---3-3-|-----------------|--------------||-|


 Pre-Verse
  Gtr I
   E  E E E E E E E     E  E E E E E E E
|-------------------|--------------------|
|-------------------|--------------------|
|--x--5-x-x-4-x-x-5-|---x--x-4-x-x-5-x-x-|
|-------------------|--------------------|
|-------------------|--------------------|
|-------------------|--------------------|
|
| Gtr II
|  PM-------------------------------------
|  E  E E E E E E E     E  E E E E E E E
|-------------------|--------------------|
|-------------------|--------------------|
|-------------------|--------------------|
|----10-7---7-----7-|--------7-----7-----|
|---------8---7-8---|---7--8---7-8---7-8-|
|--8----------------|--------------------|
|
| Gtr III
|  W                   +H        H
|-------------------|--------------------|
|-------------------|--------------------|
|-------------------|--------------------|
|-10----------------|-(10)-------9-------|
|-------------------|--------------------|
|-------------------|--------------------|


   E     E   E    E   E  E E E     E  E E E   E   E E E
|------------------------------|------------------------|
|------------------------------|------------------------|
|--x-----7---x----x---6--x-x-7-|---x--x-6-x---x---7-x-x-|
|------------------------------|------------------------|
|------------------------------|------------------------|
|------------------------------|------------------------|
|
|-----------------------------------------------------|
|  E     E   E    E   E  E E E     E  E E E   E   E E E
|------------------------------|------------------------|
|------------------------------|------------------------|
|------------------------------|------------------------|
|--7---------7--------7--7---7-|--------7---------7---0-|
|--------7--------7--------7---|---7--7---7---7-----7---|
|------------------------------|------------------------|
|
|  Q        +E    E  +H           +H         +H
|------------------------------|------------------------|
|------------------------------|------------------------|
|------------------------------|------------------------|
|-11b12====(11)r-11-(11)-------|-(11)-------(11)-------|
|------------------------------|------------------------|
|------------------------------|------------------------|


  E      E E E  E  E E E    E   E E E E E E E
|------------------------|--------------------|
|------------------------|--------------------|
|-x------5-x-x--4--x-x-5-|--x---x-4-x-x-5-x-x-|
|------------------------|--------------------|
|------------------------|--------------------|
|------------------------|--------------------|
|
| PM-------------------------------------------
| E      E E E  E  E E E    E   E E E E E E E
|------------------------|--------------------|
|------------------------|--------------------|
|------------------------|--------------------|
|-------10-7----7------7-|--------7-----7-----|
|------------8-----7-8---|--7---8---7-8---7-8-|
|-8----------------------|--------------------|
|
| H            +H          +H         H
|------------------------|--------------------|
|------------------------|--------------------|
|------------------------|--------------------|
|-9b10=========(9)-------|-(9)r-------9-------|
|------------------------|--------------------|
|------------------------|--------------------|


   E     E   E    E  +E   E  +E  E   +H.           +Q
|----------------------------------|----------------------||
|----------------------------------|----------------------||
|--x-----7---x----6--(6)--7--(7)-9-|-(9)-----------(9)---||
|----------------------------------|----------------------||
|----------------------------------|----------------------||
|----------------------------------|----------------------||
|
|-------------------------------------------------------|
|  E     E   E    E   E   E   E  E    E  E E E E E  E   E
|----------------------------------|----------------------||
|----------------------------------|----------------------||
|----------------------------------|----------------------||
|--7---------7--------7---7------7-|-------7-----7------0-||
|--------7--------7-----------7----|--7--7---7-7----7-----||
|----------------------------------|----------------------||
|
|  Q        +E    E  +E   E  +E  E   +H.           +Q
|----------------------------------|----------------------||
|----------------------------------|----------------------||
|--------------------------------9-|-(9)-----------(9)---||
|-11b12====(11)r-11-(11)-12-(12)---|----------------------||
|----------------------------------|----------------------||
|----------------------------------|----------------------||


 Verse
  Gtr II
  E E E E E E E E   E E E E E E E E
|-----------------|-----------------|
|-----------------|-----------------|
|-----------------|-----------------|
|-----------------|-----------------|
|-5-----5---5---5-|-3-----3---3---3-|
|-3-x-x-3-x-3-x-3-|-1-x-x-1-x-1-x-1-|
|
| Gtr III
| W                 W
|-----------------|-----------------|
|-----------------|-----------------|
|-----------------|-----------------|
|-----------------|-----------------|
|-----------------|-----------------|
|-----------------|-----------------|


  E E E E E E E E    E     E  E   E  E     E E E
|-----------------|------------------------------|
|-----------------|------------------------------|
|-----------------|------------------------------|
|-----------------|------------------------------|
|-3-----3---3---3-|--3------------3--------3---3-|
|-0-x-x-0-x-0-x-0-|--0-----x--x---0--x-----0-x-0-|
|
|                                    ~~~~~~
| W                  Q        E   E  H
|-----------------|--------------18--------------|
|-----------------|-18b20====18r----18b20========|
|-----------------|------------------------------|
|-----------------|------------------------------|
|-----------------|------------------------------|
|-----------------|------------------------------|


    E   E E E E E E E   E E E E E E E E
|---------------------|-----------------|
|---------------------|-----------------|
|---------------------|-----------------|
|---------------------|-----------------|
|---5-------5---5---5-|-3-----3---3---3-|
|---3---x-x-3-x-3-x-3-|-1-x-x-1-x-1-x-1-|
|
|   ~~~~~
|  +H         H         W
|---------------------|-----------------|
|-(18)r---------------|-----------------|
|---------------------|-----------------|
|---------------------|-----------------|
|---------------------|-----------------|
|---------------------|-----------------|


  E   E E E E E E E       E   E E E E E E E
|----------------------|-----------------------|
|----------------------|-----------------------|
|----------------------|-----------------------|
|----------------------|-----------------------|
|-3-------3---3---3----|--3-------3---3---3----|
|-0---x-x-0-x-0-x-0----|--0---x-x-0-x-0-x-0----|
|
| H..             E      +E   E E E E E E E
|----------------------|-----------------------|
|-----------------5b6==|=(5)r-5-6-5-3----------|
|----------------------|--------------5-5-5b7==|
|----------------------|-----------------------|
|----------------------|-----------------------|
|----------------------|-----------------------|


   E   E E E E E E   E    E  E E E E E  E  E      E  E E E E E E E
|----------------------|-----------------------|-------------------|
|----------------------|-----------------------|-------------------|
|----------------------|-----------------------|-------------------|
|----------------------|-----------------------|-------------------|
|--5-------5---5-----5-|--3------3---3-----3---|--3------3---3---3-|
|--3---x-x-3-x-3-x---3-|--1--x-x-1-x-1--x--1---|--0--x-x-0-x-0-x-0-|
|
| +H.            E   E   +H.           +E  E     +W
|----------------------|-----------------------|-------------------|
|----------------------|-----------------------|-------------------|
|-(5)r-----------5b7r5-|-(5)-----------(5)-5b7r|=(5)---------------|
|----------------------|-----------------------|-------------------|
|----------------------|-----------------------|-------------------|
|----------------------|-----------------------|-------------------|


   E  E E E E E E E   E E E E E E E E   E E E E E E E E
|-------------------|-----------------|------------------|
|-------------------|-----------------|------------------|
|-------------------|-----------------|------------------|
|-------------------|-----------------|------------------|
|--3------3---3---3-|-5-----5---5---5-|-3-----3---3---3--|
|--0--x-x-0-x-0-x-0-|-3-x-x-3-x-3-x-3-|-1-x-x-1-x-1-x-1--|
|
| +H        H         W                 W
|-------------------|-----------------|------------------|
|-------------------|-----------------|------------------|
|-(5)---------------|-----------------|------------------|
|-------------------|-----------------|------------------|
|-------------------|-----------------|------------------|
|-------------------|-----------------|------------------|


  W          +W           W          W          +W
|----------|------------|----------|----------|------------||--|
|----------|------------|-8--------|-7--------|-(7)--------||--|
|-8--------|-(8)--------|-7--------|-7--------|-(7)--------||--|
|-8--------|-(8)--------|-7--------|-7--------|-(7)--------||--|
|-6--------|-(6)--------|----------|----------|------------||--|
|----------|------------|----------|----------|------------||--|


 Chorus
  $
    PM|   PM  PM|     PM|   PM  PM|     PM|   PM  PM|     PM|   PM  PM|
  E E E E E E E E   E E E E E E E E   E E E E E E E E   E E E E E E E E
|-3-----2---3-----|-3-----2---3-----|-3-----2---3-----|-3-----2---3-----|
|-3-----3---3-----|-3-----3---3-----|-3-----3---3-----|-3-----3---3-----|
|-0-0-0-0-0-0-0-0-|-0-0-0-0-0-0-0-0-|-0-----0---0-----|-0-----0---0-----|
|-----------------|-----------------|-----------------|-----------------|
|-----------------|-----------------|-3-3-3-3-3-3-3-3-|-3-3-3-3-3-3-3-3-|
|-----------------|-----------------|-----------------|-----------------|


    PM|   PM  PM|     PM|   PM  PM|     PM|   PM  PM|
  E E E E E E E E   E E E E E E E E   E E E E E E E E   H    H
|-0---------------|-0---------------|-3-----2---3-----|-----------|
|-1-----0---------|-1-----0---------|-3-----3---3-----|-----------|
|-2-----2---2-----|-2-----2---2-----|-0-0-0-0-0-0-0-0-|-----------|
|-2-----2---2-----|-2-----2---2-----|-----------------|-----------|
|-0-0-0-0-0-0-0-0-|-0-0-0-0-0-0-0-0-|-----------------|-----------|
|-----------------|-----------------|-----------------|-3----2----|
|
| Gtr III
| W                 W                 W                 H    H
|-----------------|-----------------|-----------------|-----------|
|-----------------|-----------------|-----------------|-----------|
|-----------------|-----------------|-----------------|-----------|
|-----------------|-----------------|-----------------|-----------|
|-----------------|-----------------|-----------------|-----------|
|-----------------|-----------------|-----------------|-3----2----|


    PM|   PM  PM|     PM|   PM  PM|     PM|   PM  PM|     PM|      PM    PM-|
  E E E E E E E E   E E E E E E E E   E E E E E E E E   E E  E  E  E  E  E  E
|-----------------|-2-----3---2-----|-3-----2---3-----|-3-------2-----3-------|
|-0-----0---0-----|-3-----3---3-----|-3-----3---3-----|-3-------3-----3-------|
|-0-----0---0-----|-2-----2---2-----|-0-----0---0-----|-0-------0-----0-------|
|-2-----2---2-----|---0-0---0---0-0-|-----------------|-----------------------|
|-2---------------|-----------------|-3-3-3---3---3-3-|-3-3--3-----3-----3--3-|
|-0-0-0---0---0-0-|-----------------|-----------------|-----------------------|
|
| W                 W                 W                 E E +E  E +E  E +Q
|-----------------|-----------------|-----------------|-----------------------|
|-----------------|-----------------|-----------------|-----------------------|
|-----------------|-----------------|-----------------|-5-4-(4)-2-(2)-0-(0)---|
|-----------------|-----------------|-----------------|-----------------------|
|-----------------|-5---------------|-3---------------|-----------------------|
|-0---------------|-----------------|-----------------|-----------------------|


                                                                   To Coda
    PM|   PM  PM|     PM|   PM  PM|     PM|   PM  PM    PM|   PM
  E E E E E E E E   E E E E E E E E   E E E E E E E E   E E E E Q.   +E
|-0---------------|-----------------|-0-----2---3---2-|-----3---5----(5)-||-|
|-1-----0---------|-0---------0-----|-3-----3---3---3-|-----3---5----(5)-||-|
|-2-----2---2-----|-0-----2---0-----|-2-----2---2---2-|-----2-------------||-|
|-2-----2---2-----|-0-----0---0-----|---0-0---0---0---|-0-0---0-----------||-|
|-0-0-0-0-0-0-0-0-|-----------------|-----------------|-------------------||-|
|-----------------|---3-3---3---3-3-|-----------------|-------------------||-|
|
|                                                       PM|     ~~
| W                 W                 W                 E E q   H
|-----------------|-----------------|-----------------|-------------------||-|
|-----------------|-----------------|-----------------|-------------------||-|
|-2---------------|-0---------------|-----------------|-------------------||-|
|-----------------|-----------------|-4---------------|-4-4-5---7---------||-|
|-----------------|-----------------|-----------------|-------------------||-|
|-----------------|-----------------|-----------------|-------------------||-|


 Bridge
  PM----------------------------------|    PM------------|   PM--------|
  E E E E E E E E   E E E E E E E E    E E E E E E E E   E E E E E E E E
|-----------------|-----------------|------------------|-----------------|
|-----------------|-----------------|------------------|-----------------|
|-----------------|-----------------|------------------|-----------------|
|---3-2---2---2---|-2-3-2---2---2---|----5-3---3---3---|-3-5-3---3---3---|
|-2-----2---2---2-|-------2---2---2-|-/3-----3---3---3-|-------3---3---3-|
|-----------------|-----------------|------------------|-----------------|


   PM------------------------------|          PM----------|     PM------|
   E E E E E E E E   E E E E E E E E    E E E E E E E E   E E E E E E E E
|------------------|-----------------|------------------|-----------------|
|------------------|-----------------|------------------|-----------------|
|------------------|-----------------|------------------|-----------------|
|----7-5---5---5---|-5-7-5---5---5---|----9p7---7---7---|-7-9p7---7---7---|
|-/5-----5---5---5-|-------5---5---5-|-/7-----7---7---7-|-------7---7---7-|
|------------------|-----------------|------------------|-----------------|


   PM     PM----------|      PM----------|          PM-------------
   E  E E E E E E E   E  E E E E E E E     E  E  E  E  E  E  E  E
|-------------------|------------------|--------------------------|
|-------------------|------------------|--------------------------|
|-------------------|------------------|--------------------------|
|----10p8---8---8---|-8-10p8---8---8---|-----12p10----10----10----|
|-/8------8---8---8-|--------8---8---8-|-/10-------10----10----10-|
|-------------------|------------------|--------------------------|


                                              9/8
 -|         PM
   E  E  E  E  E.  +S      +S   +S      +E
|-------------------------------------------||-|
|-------------13--(13)b15r(13)-(13)b15r(13)-||-|
|-------------------------------------------||-|
|-10-12p10----------------------------------||-|
|----------10-------------------------------||-|
|-------------------------------------------||-|


 9/8                               4/4
  Q.   Q.   Q.     Q.   Q.   Q.     W
|----------------|----------------|----------||-|
|----------------|----------------|----------||-|
|----------------|----------------|----------||-|
|----------------|----------------|-0--------||-|
|----------------|-0----2----3----|----------||-|
|-0----1----3----|----------------|----------||-|


 Guitar Solo
  Gtr III
                                        ~~
          |--3---|    |-----3-----|
   H     +Q   Q  Q    Q     Q     Q     Q   +Q
|------------------|------------------------------|
|-12----(12)----12-|-14b15-14b15-14b15-12--(12)--|
|------------14----|------------------------------|
|------------------|------------------------------|
|------------------|------------------------------|
|------------------|------------------------------|


                             5/4                               4/4
                                                     7
  E   E  E  E  +E   E  E  E    E  E  E  E      +Q    Q   E  E
|----------14-(14)----------|-------14-16b17==(16)--16r----10-|-|
|------------------15-17-14-|-15-17---------------------------|-|
|-------16------------------|---------------------------------|-|
|---/16---------------------|---------------------------------|-|
|---------------------------|---------------------------------|-|
|---------------------------|---------------------------------|-|


 2/4        4/4
                           |-3-|
  E  E E E   E  E E  E E E E E E
|-8-10-8-7-|-8-----------------7-|
|----------|---10-8-10-7-8-7-8---|
|----------|---------------------|
|----------|---------------------|
|----------|---------------------|
|----------|---------------------|


                                               9/8
                                        ~~~
   |-3-|      |-3--| |-3-|
   E E E E E  E  E E E E E   E E S S E +H
|-10-7-----7-12-10---------|------------------|-|
|------8-7-----------8-7---|-8----------------|-|
|------------------7-----7-|-----7h9p7-(7)----|-|
|--------------------------|---7--------------|-|
|--------------------------|------------------|-|
|--------------------------|------------------|-|


 9/8
   S   S  S  S  S  S  S   S  S  S  S  S  S   S  S  S  S S
|---------------------------------------------------------|
|-14-----------------15-----------------17-----------17---|
|-----15----------15-----16----------16-----18----18------|
|--------16-15-16-----------17-16-17-----------19---------|
|---------------------------------------------------------|
|---------------------------------------------------------|
|
| Gtr II
|  Q.                 Q.                 Q.
|---------------------------------------------------------|
|---------------------------------------------------------|
|---------------------------------------------------------|
|---------------------------------------------------------|
|---------------------------------------------------------|
|--0------------------1------------------3----------------|


 6/8                                    4/4
   S   S  S S  S  S  S   S  S S  S  S
|-------------------------------------||-|
|-19----------------21--18---------18-||-|
|-----20---------20--------18---18----||-|
|--------21---21----------------------||-|
|-------------------------------------||-|
|-------------------------------------||-|
|
|  Q.                Q.
|-------------------------------------||-|
|-------------------------------------||-|
|-------------------------------------||-|
|-------------------------------------||-|
|--0-----------------2----------------||-|
|-------------------------------------||-|


 4/4
   Q       +Q         +H           +H          Q    +E   S  S
|-19b20r==(19)b20====(19)-------|-(19)r-------19---(19)-20-19-|
|-------------------------------|-----------------------------|
|-------------------------------|-----------------------------|
|-------------------------------|-----------------------------|
|-------------------------------|-----------------------------|
|-------------------------------|-----------------------------|
|
|  PM----------------------------------------------------------
|  E    E   E      E   E  E E E     E   E E E  E E   E   E
|-------------------------------|-----------------------------|
|-------------------------------|-----------------------------|
|-------------------------------|--------------------0--------|
|-----------7----------7--7---7-|---7-----7-7----0-------0----|
|--8---------------8--------8---|-------8------7--------------|
|-------8-----------------------|-----------------------------|


                                         ~~
   H        E  E  E  E        Q     Q    Q    Q
|-17-------17-19-17-19b20==|=19r---21---21---21---|
|--------------------------|-----------------------|
|--------------------------|-----------------------|
|--------------------------|-----------------------|
|--------------------------|-----------------------|
|--------------------------|-----------------------|
|
|------------------------------------------------|
|  E E E E  E  E  E  E        E  E  E E  E E  E  E
|--------------------------|-----------------------|
|--------------------------|-----------------------|
|--------------------7-----|-----9----9----9--9--7-|
|----0-7----7-----7--------|--7-----7----7---------|
|--7-----7-----7-----------|-----------------------|
|--------------------------|-----------------------|


  H          H          +H          E   +E   E   +E
|-7b8========7--------|-(7)r--------7b8r(7)--7b8r(7)-|
|---------------------|------------------------------|
|---------------------|------------------------------|
|---------------------|------------------------------|
|---------------------|------------------------------|
|---------------------|------------------------------|
|
| PM--------------------------------------------------
| E    E E E E E E  E    E   E E E  E    E   E    E
|---------------------|------------------------------|
|---------------------|------------------------------|
|---------------------|------------------------------|
|--------7---9-7---10-|--7-----9---------------------|
|-8--------8-----8----|------8---8----------10-------|
|------8--------------|------------10----7-------10--|


                                              D.S. al Coda
                                                ~~
                    |--3---|   |--3---| |--3--|
  Q.       E +E   E E  E   E   E E    E E E   E H
|-9b10-----9-(9)-10-9--------|----------------------------||--|
|---------------------10---8-|-------10-8-----------------||--|
|----------------------------|-9-7--------9---7-6---------||--|
|----------------------------|----------------------------||--|
|----------------------------|----------------------------||--|
|----------------------------|----------------------------||--|
|
|---------------------------------------|             PM|
| E    E E E  E   E E    E     E   E    E   E   S S E E E
|----------------------------|----------------------------||--|
|----------------------------|----------------------------||--|
|------------------------7---|--------------7---6h7p6-----||--|
|--------7---11---7----------|-7--------7-------------7---||--|
|-7--------7--------7--------|-----7--------------------7-||--|
|------9---------------------|----------------------------||--|


  &
  Gtr II
    PM|   PM  PM|       PM|         PM      PM-|
  E E E E E E E E    E  E   E   E   E   E   E   E
|-3-----2---3-----|--3----------2-------3---------|
|-3-----3---3-----|--3----------3-------3---------|
|-0-0-0-0-0-0-0-0-|--0--0---0---0---0---0---0---0-|
|-----------------|-------------------------------|
|-----------------|-------------------------------|
|-----------------|-------------------------------|
|
| Gtr III
| W                  E  E  +E   E  +E   E  +E   E
|-----------------|-15-14-(14)-12-(12)-14-(14)-15-|
|-----------------|-------------------------------|
|-----------------|-------------------------------|
|-----------------|-------------------------------|
|-----------------|-------------------------------|
|-----------------|-------------------------------|


     PM|   PM  PM|       PM|         PM         PM-|
   E E E E E E E E    E  E   E   E   E   E      E   E
|--3-----2---3-----|--3----------2-------3------------|
|--3-----3---3-----|--3----------3-------3------------|
|--0-----0---0-----|--0----------0-------0------------|
|------------------|----------------------------------|
|--3-3-3-3-3-3-3-3-|--3--3---3---3---3---3------3---3-|
|------------------|----------------------------------|
|
|  ~~
|  W                  E  E  +E   E  +E   E     +E   E
|-15---------------|-15-14-(14)-12-(12)-15b17-(15)-15-|
|------------------|----------------------------------|
|------------------|----------------------------------|
|------------------|----------------------------------|
|------------------|----------------------------------|
|------------------|----------------------------------|


     PM|   PM  PM|       PM|         PM          PM-|
   E E E E E E E E    E  E   E   E   E   E       E   E
|--0---------------|--0--------------------------------|
|--1-----0---------|--1----------0---------------------|
|--2-----2---2-----|--2----------2-------2-------------|
|--2-----2---2-----|--2----------2-------2-------------|
|--0-0-0-0-0-0-0-0-|--0--0---0---0---0---0-------0---0-|
|------------------|-----------------------------------|
|
|  ~~
|  W                  E  E  +E   E  +E   E      +E   E
|-15---------------|-15-14-(14)-12-(12)-14b15==(14)-14-|
|------------------|-----------------------------------|
|------------------|-----------------------------------|
|------------------|-----------------------------------|
|------------------|-----------------------------------|
|------------------|-----------------------------------|


       PM|       PM   PM|
   E   E   E   E E E  E E    H    H
|--3-----------2---3------|------------|
|--3-----------3---3------|------------|
|--0---0---0---0-0-0--0-0-|------------|
|-------------------------|------------|
|-------------------------|------------|
|-------------------------|--3----2----|
|
|  E   E  +E   E Q    q      H    H
|-14r-14-(14)-12----------|------------|
|--------------------15---|-15---------|
|-------------------------|------------|
|-------------------------|------------|
|-------------------------|------------|
|-------------------------|-------2----|


    PM|   PM  PM|     PM|   PM  PM|     PM|   PM  PM|     PM|      PM    PM-|
  E E E E E E E E   E E E E E E E E   E E E E E E E E   E E  E  E  E  E  E  E
|-----------------|-2-----3---2-----|-3-----2---3-----|-3-------2-----3-------|
|-0-----0---0-----|-3-----3---3-----|-3-----3---3-----|-3-------3-----3-------|
|-0-----0---0-----|-2-----2---2-----|-0-----0---0-----|-0-------0-----0-------|
|-2-----2---2-----|---0-0---0---0-0-|-----------------|-----------------------|
|-2---------------|-----------------|-3-3-3---3---3-3-|-3-3--3-----3-----3--3-|
|-0-0-0---0---0-0-|-----------------|-----------------|-----------------------|
|
| W                 W                 W                 E E +E  E +E  E +Q
|-----------------|-----------------|-----------------|-----------------------|
|-----------------|-----------------|-----------------|-----------------------|
|-----------------|-----------------|-----------------|-5-4-(4)-2-(2)-0-(0)---|
|-----------------|-----------------|-----------------|-----------------------|
|-----------------|-5---------------|-3---------------|-----------------------|
|-0---------------|-----------------|-----------------|-----------------------|


    PM|   PM  PM|     PM|   PM  PM|
  E E E E E E E E   E E E E E E E E
|-0---------------|-----------------|
|-1-----0---------|-0---------0-----|
|-2-----2---2-----|-0-----2---0-----|
|-2-----2---2-----|-0-----0---0-----|
|-0-0-0-0-0-0-0-0-|-----------------|
|-----------------|---3-3---3---3-3-|
|
| W                 W
|-----------------|-----------------|
|-----------------|-----------------|
|-2---------------|-0---------------|
|-----------------|-----------------|
|-----------------|-----------------|
|-----------------|-----------------|


    PM|   PM  PM    PM|   PM
  E E E E E E E E   E E E E Q.   +E      W
|-0-----2---3---2-|-----3---5----(5)-|--3----*|
|-3-----3---3---3-|-----3---5----(5)-|--3----*|
|-2-----2---2---2-|-----2-------------|--2----*|
|---0-0---0---0---|-0-0---0-----------|--0----*|
|-----------------|-------------------|-------*|
|-----------------|-------------------|-------*|
|
|                   PM|     ~~
| W                 E E q   H            W
|-----------------|-------------------|-15----*|
|-----------------|-------------------|-------*|
|-----------------|-------------------|-------*|
|-4---------------|-4-4-5---7---------|-------*|
|-----------------|-------------------|-------*|
|-----------------|-------------------|-------*|


Duration Legend
---------------
W - whole; H - half; Q - quarter; E - 8th; S - 16th; T - 32nd; X - 64th;
a - acciaccatura; + - note tied to previous; . - note dotted;
.. - note double dotted
Uncapitalized letters represent notes that are staccato (1/2 duration).
Irregular groupings are notated above the duration line.
Duration letters will always appear directly above the note/fret number
it represents the duration for.
Duration letters with no fret number below them represent rests.

Tablature Legend
----------------
 h   - hammer-on
 p   - pull-off
 b   - bend
 pb  - pre-bend
 r   - bend release (if no number after the r, then release immediately)
 /  - slide into or out of (from/to "nowhere")
 s   - legato slide
 S   - shift slide
  - natural harmonic
[n]  - artificial harmonic
n(n) - tapped harmonic
 ~   - vibrato
 tr  - trill
 T   - tap
 TP  - trem. picking
 PM  - palm muting

/  - tremolo bar dip; n = amount to dip
 
  - tremolo bar down
 n/  - tremolo bar up
/n  - tremolo bar inverted dip
 =   - hold bend; also acts as connecting device for hammers/pulls
 <>  - volume swell (louder/softer)
 x   - on rhythm slash represents muted slash
 o   - on rhythm slash represents single note slash

Misc Legend
-----------
 |  - bar
||  - double bar
||o - repeat start
o|| - repeat end
*|  - double bar (ending)
 :  - bar (freetime)
 $  - Segno
 &  - Coda

Tempo markers -  = BPM(8/16=s8/s16),
where s8 = swing 8ths, s16 = swing 16ths

Comments about this tab

No comments/corrections found. Add your own

Complimentary Christian Ringtones
Dadamobile and CGR have teamed up to bring your favorite Christian artists right to your phone. Sign up today and get 10 complementary ringtones!
Tab Country
Did you know CGR has a sister site w/ country guitar tabs? Well we do! Its called Tab Country. It has a great archive with a lot of country tabs.
Rockin Tabs
Are you looking for a site that has rock guitar tabs? Then Rockintabs.com is the place for you. It is a budding site with many rock guitar tabs. Submit your tab today.
Tab Gallery
Tab Gallery has a compilation of christian, rock, and country tabs all in one place. Come visit us.