Guitar Tabs
song title    band name

Join Us Today!

Don't strum alone...
be a part of the largest online Christian music community. Browse thousands of guitar tabs and chat w/ musicians like yourself.


It's Free!

This tab has been rated a 5.00 out of 5 for accuracy. (3 votes)Sorry, but you must be logged in to rate this tab.
Click here to log-in, or you can click here to register.
(Registration is free)

All songs owned by corresponding publishing company. If you make copies of any song on this website, be sure to report your usage to CCLI.
Submitted by: Cheese_Monkey

Song: Regrets of Photographs
Artist: Number one Gun
Album: Promises for the Imperfect
Tabbed by: Tim Lahn (Cheese_Monkey)

Wow very few number one gun tabs out here! it's a shame, they're an awsome
band! well here's my first (hopefully of many) of their tabs! enjoy folks!
Drop D Tuning

i'm not going to give you strumming patterns, it's too easy to hear, and 
too time consuming for me :)

Intro:

e---------------|---------------------------------
B---------------|---------------------------------
G-4-----2-----7-|--------------------------------7
D-4--2--2--2--7-|-2-4-44-2-4--2-4444-2-4-44-2-4--7 repeat from line
A-2--2--0--2--5-|-2-4-44-2-4--2-4444-2-4-44-2-4--5
D----2-----2----|-2-4-44-2-4--2-4444-2-4-44-2-4---

Verse:

e---------------------------------------0---
B---0---0------------------------------2-0-2
G--2-2-2-2 repeat a billion times then------
D-4---4-------------------------------------
A-------------------------------------------
D-------------------------------------------

Chorus (same strumming as intro):

e-
B-
G-------------------7---4----------7------
D-4-2-4---4-2-4--4--7---4----------7---2--
A-4-2-4---4-2-4--4--5---2-- repeat-5---2--
D-4-2-4---4-2-4--4-(7)-(2)--------(7)--2--

(notes in brackets are ones that i've played arround with but i'm not sure
if that is what the band is adding to give it that extra feel)

2nd verse is all bass

bridge:

e----0---0--------------------------
B---2---2-----------------------0-2-
G--4---4--- repeat a few times-2---- repeat whole thing until end of bridge
D-----------------------------------

after that play the intro riff again, then play the chorus to the end!

and there we have it ladies and gentlemen!  please rate the tab and leave a
comment for me! God Bless!

Tim (Cheese_Monkey)

Comments about this tab

No comments/corrections found. Add your own

Complimentary Christian Ringtones
Dadamobile and CGR have teamed up to bring your favorite Christian artists right to your phone. Sign up today and get 10 complementary ringtones!
Tab Country
Did you know CGR has a sister site w/ country guitar tabs? Well we do! Its called Tab Country. It has a great archive with a lot of country tabs.
Rockin Tabs
Are you looking for a site that has rock guitar tabs? Then Rockintabs.com is the place for you. It is a budding site with many rock guitar tabs. Submit your tab today.
Tab Gallery
Tab Gallery has a compilation of christian, rock, and country tabs all in one place. Come visit us.