Guitar Tabs
song title    band name

Join Us Today!

Don't strum alone...
be a part of the largest online Christian music community. Browse thousands of guitar tabs and chat w/ musicians like yourself.


It's Free!

This tab has been rated a 1.75 out of 5 for accuracy. (4 votes)Sorry, but you must be logged in to rate this tab.
Click here to log-in, or you can click here to register.
(Registration is free)

All songs owned by corresponding publishing company. If you make copies of any song on this website, be sure to report your usage to CCLI.
Submitted by: fdnick

Jeremy camp
Restored album

I was watching Jeremy camp's live version of this song and he played this intro
in a very simple manner. I just thought i would share what i thought he was playing
with all of you. FYI it sounds very good in acoustic This is my first tab so go easy.

This Man (Intro)
 Standard Tuning
E----------------------------------------------------------------------
B----0--0----0--0------------------------------------------------------
G---0--0----0--0-------------------------------------------------------
D----------------------------------------------------------------------
A--2--3--3-5--5--5-----------------------------------------------------
E----------------------------------------------------------------------
Then Repeat a couple of times.

If People think this is a good tab then i will finish the rest of the song.
Please provide comments or other ideas or corrections, I am always open to 
other suggestions. Thanks for taking the time to view my tab.
In Him,
 -Nick-

Comments about this tab

Lying Face Down - 2006-01-03

This is so wrong.....
This should be a little bit better

Standard Tuning
E----------------------------------------------------------------------
B----0--0----0--0------------------------------------------------------
G---0--0----0--0-------------------------------------------------------
D----------------------------------------------------------------------
A--3--5--5--2--3--3---3--5--5--7--7--5----------------------------------------
E----------------------------------------------------------------------


Lying Face Down - 2006-01-03

Then Once It Gets to "and the king was placed" play Em, G, C, D, Em, C, D

Chorus: Em, C, G, D



Mar-T - 2006-01-04

Yeah, I got he DVD too, I tabbed it out on:
http://christian.totaltabs.com/songs.asp?id=30531


jasheek123 - 2006-01-07

hahaha sorry to say but you guys are both incorrect. the real correct tabs are
E-----------------------------------
B-----------------------------------
G----5-----5-----5---5-----5--------
D------6-----6---------6-----6---6--
A--4-----6-----6---3-----4-----4---- (x2) and then the after that part it
E----------------------------------- continues to

E--------------------------------------------------------------------
B--------------------------------------------------------------------
G----5-----5-----5---5-----5---------5-----5---------5-----5---------
D------6-----6---------6-----6---6-----6-----6---6-----6-----6---6---
A--4-----6-----6---8-----8-----8---6-----6-----6---6-----6-----6-----
E--------------------------------------------------------------------


Twigguitar_1992 - 2006-03-31

i agree wit Jasheek123. keep tryin'


Add a comment/correction

Complimentary Christian Ringtones
Dadamobile and CGR have teamed up to bring your favorite Christian artists right to your phone. Sign up today and get 10 complementary ringtones!
Tab Country
Did you know CGR has a sister site w/ country guitar tabs? Well we do! Its called Tab Country. It has a great archive with a lot of country tabs.
Rockin Tabs
Are you looking for a site that has rock guitar tabs? Then Rockintabs.com is the place for you. It is a budding site with many rock guitar tabs. Submit your tab today.
Tab Gallery
Tab Gallery has a compilation of christian, rock, and country tabs all in one place. Come visit us.