Guitar Tabs
song title    band name

Join Us Today!

Don't strum alone...
be a part of the largest online Christian music community. Browse thousands of guitar tabs and chat w/ musicians like yourself.


It's Free!

This tab has not yet been rated for accuracy.Sorry, but you must be logged in to rate this tab.
Click here to log-in, or you can click here to register.
(Registration is free)

All songs owned by corresponding publishing company. If you make copies of any song on this website, be sure to report your usage to CCLI.
Submitted by: TFK...SO RAD...

Band: 12 Stones
Album: 12 Stones
Tuning: Drop C

This is an awesome song with an awesome solo. Im about 99% sure 
that this is perfect. 
I know that there has been a 
lot of dispute over which chords and solos are right 
so here is a complete tab. God Bless.

h - hammer on
* - Palm mute
p - pull off
x - percussive strum
b - bend
br - bend then release
brp - bend then release then pull off
/ - slide

intro/verse (0:00-0:50)
D--------------------------------------------------------
A--------------------------------------------------------
F-7----7-----7---10-----10-----10---9----9---9--5-4-5----
C---00---00----0----00-----00-----0---00---00--0-5-5-5---
G--------------------------------------------------------
C--------------------------------------------------------

chorus (0:51-1:16)
D------------------------------
A------------------------------
F---------5555-----------------
C-xxxx000-5555--3333-5555h3-3-0  x4 then play
G-xxxx000-3333--3333-5555h3-3-0
C-xxxx000-------3333-5555h3-3-0


D-------------------------
A-------------------------
F-----5555----------------
C-000-5555-333--5555-333--
G-000-3333-333--5555-333--
C-000------333--5555-333--
                **** ***

bridge (2:21-2:46)
D------------------------------    
A------------------------------    
F------------------------------    
C--00---00---------------------  x3 
G--00---00--5-3-2-5-3-2--------
C--00---00--5-3-2-5-3-2--------
   **   **  * * * * * *

on the 4th time play
D------------------------
A------------------------
F------------------------
C--00---00---------------     repeat this after repeating the top
G--00---00--5-3-2--10----
C--00---00--5-3-2--10----
   **   **  * * *


Part in the middle of the 2nd verse (1:23-1:30)
D-----------------------------------------
A---------6h8p6-5h6p5-6p5-----------------
F-5h7-5h7-----------------5-----5---5-7---
C---------------------------5h7---7-------
G-----------------------------------------
C-----------------------------------------

solo (2:46-3:14)
D----------------------------------------------------
A-------------------10-12-12b-12b-12b-12brp10----10--
F-------------10----10-12-12b-12b-12b-12brp10----10--
C-10/12-10-12----12---------------------------12-----
G----------------------------------------------------
C----------------------------------------------------

D--------------------------------13hb----------------
A-----10-13-10-13-13/15-13-15-15------15-15-13h15p13-
F-12-------------------------------------------------
C----------------------------------------------------
G----------------------------------------------------
C----------------------------------------------------

D--------13-------13-------13-15b15b15b15brp13--13---------------
A-----13----15-15----15-15--------------------15----15-13h15p13--
F-14-------------------------------------------------------------
C----------------------------------------------------------------
G----------------------------------------------------------------
C----------------------------------------------------------------


D------------13---------------------------------------------
A-----13-15-----15-12brp10----10-12brp10-----10-------------
F-14---------------12brp10----10-12brp10-----10-------------
C--------------------------12-------------12-----12-10------
G-------------------------------------------------------12--
C-----------------------------------------------------------

D---------------------------------------------------------
A---------------------------------------------------------
F---------------------------------12brp10----10-12brp10---
C-----------------------10----10----------12--------------
G-10/8----8-----8-10/12----12-----------------------------
C-------10---10-------------------------------------------

D---------------------------------------------------------
A--------------13-----15-13h15p13----13-------12br--------
F-----10-12/14----14--------------14----14/12-12br--------
C-12------------------------------------------------------
G---------------------------------------------------------
C---------------------------------------------------------

D--------------
A-10-12-10-----
F-10-12-10-----
C----------12--
G--------------
C--------------

order of the song
intro x2
verse x6
chorus  x1
verse x6
chorus x1
bridge x8
solo
chorus x1

Comments about this tab

MxPx 4ever - 2005-12-31

i play it differntly i play it like this..


g---7----7----7---10-----10----9----9----9---5--4--5
d-----00---00---------00----00---00---00-------------


MxPx 4ever - 2005-12-31

the intro that is


TFK...SO RAD... - 2006-01-01

Yeah man, that's cool, they both work. Though if you listen to the CD you'll find that they play it like that. Thanks for the suggestion though.

God Bless, TFK...SO RAD...


TFK...SO RAD... - 2006-01-05

Yeah, with the solo people. At some points, if you listen to the song, there are some points where you need to repeat some of the things i put in. You'll know where when you listen to it.

God Bless TFK...SO RAD...


Add a comment/correction

Complimentary Christian Ringtones
Dadamobile and CGR have teamed up to bring your favorite Christian artists right to your phone. Sign up today and get 10 complementary ringtones!
Tab Country
Did you know CGR has a sister site w/ country guitar tabs? Well we do! Its called Tab Country. It has a great archive with a lot of country tabs.
Rockin Tabs
Are you looking for a site that has rock guitar tabs? Then Rockintabs.com is the place for you. It is a budding site with many rock guitar tabs. Submit your tab today.
Tab Gallery
Tab Gallery has a compilation of christian, rock, and country tabs all in one place. Come visit us.