Guitar Tabs
song title    band name

Join Us Today!

Don't strum alone...
be a part of the largest online Christian music community. Browse thousands of guitar tabs and chat w/ musicians like yourself.


It's Free!

This tab has been rated a 3.00 out of 5 for accuracy. (3 votes)Sorry, but you must be logged in to rate this tab.
Click here to log-in, or you can click here to register.
(Registration is free)

All songs owned by corresponding publishing company. If you make copies of any song on this website, be sure to report your usage to CCLI.
Submitted by: c_glory

Title: Take you Back
Artist: Jeremy Camp
Album: Restored

Well this is my first tab so if I made a mistake plz check
anyways me and my band plays using G note instead if A(like most of them are posted)

Capo 2
(acoustic)intro verese:G-C-Em7-C
-------------2-3-----------------------------------7-------------10---------
--------------------------------------8-7-------------8-------------8-------
----------------------------------------------------------------------------
----------------------------------------------------------------------------
------------------------------------------------7---------------------------
------3-3-------------3s8---------8-8--------8p0----------8-8---------------
u can play this throughout the verse

Electric
-------------------------------------------------------
----5----5p0--0----------------------------------------
------7---------0---2s4---4-----------------------------
-------------------------------------------------------
-------------------------------------------------------
-------------------------------------------------------

chorus:G-D-Am-C
Bridge:Am-Em7-G-C(2X)

Comments about this tab

lumpia - 2006-01-02

brilliant.. played just like on the dvd good job!


lumpia - 2006-01-02

woops..i just to correct a few minor errors..i think that it should be

bridge: C Am Bm Em D C Am Bm C

and G C Em C Em C Em C after first chrous

thats all everything was pretty much perfect


Chadley - 2006-01-15

Ok, so last week I got Jeremy Camps Restored sheet music book. I've got the song Take You Back down by the chords written in the book. But the book really doesn't say which notes are being played for the Electric guitar part. The more I think about it, the more I think this book was made for the intention of acoustic guitar use, not electric.
So can anyone help me out with this? I'm quite new to playing the guitar.


sanechristian - 2006-11-13

This song is the best thanks for the tabs!!!


Add a comment/correction

Complimentary Christian Ringtones
Dadamobile and CGR have teamed up to bring your favorite Christian artists right to your phone. Sign up today and get 10 complementary ringtones!
Tab Country
Did you know CGR has a sister site w/ country guitar tabs? Well we do! Its called Tab Country. It has a great archive with a lot of country tabs.
Rockin Tabs
Are you looking for a site that has rock guitar tabs? Then Rockintabs.com is the place for you. It is a budding site with many rock guitar tabs. Submit your tab today.
Tab Gallery
Tab Gallery has a compilation of christian, rock, and country tabs all in one place. Come visit us.