Guitar Tabs
song title    band name

Join Us Today!

Don't strum alone...
be a part of the largest online Christian music community. Browse thousands of guitar tabs and chat w/ musicians like yourself.


It's Free!

This tab has not yet been rated for accuracy.Sorry, but you must be logged in to rate this tab.
Click here to log-in, or you can click here to register.
(Registration is free)

All songs owned by corresponding publishing company. If you make copies of any song on this website, be sure to report your usage to CCLI.
Submitted by: Glo17

 artist- The david crowder band

 cd title- a beautiful collision

 song- be lifted or hope rising

     
  Ok guys,this is my first time writing a tab so just try to bear with me...
i'm pretty sure this song has a capo 3 in it,but I dont have a capo available right now so
anyway I hope you enjoy and feel free to write me any comments or corrections..thanks!


    standard tuning-
   
   (intro/verse)(Acoustic) 
   E-------------------------------|---------------------------
   B-------------------------------|---------------------------
   G-------------------------------|---------------------------
   D-------------------------------|--------------------------- (Repeat)
   A----6p0--6p0--6p0--6-0---9-----|---6p0--6p0--6p0--6-0--9/11
   E-------------------------------|---------------------------



   (chorus)(electric)
   
   E--------------------------------------|------------------------------------------
   B--------------------------------------|------------------------------------------
   G----8-8-8-6----6----6----------------6|--8-8-8-6---------------------------6---8-
   D------------8----8----6------6---8----|----------8----6----8---6----6---8--------
   A--------------------------9-----------|--------------------------9---------------
   E--------------------------------------|------------------------------------------


  

Comments about this tab

Alex_face - 2006-08-16

Could you tab the outro with a guitar version of the banjo part?


Add a comment/correction

Complimentary Christian Ringtones
Dadamobile and CGR have teamed up to bring your favorite Christian artists right to your phone. Sign up today and get 10 complementary ringtones!
Tab Country
Did you know CGR has a sister site w/ country guitar tabs? Well we do! Its called Tab Country. It has a great archive with a lot of country tabs.
Rockin Tabs
Are you looking for a site that has rock guitar tabs? Then Rockintabs.com is the place for you. It is a budding site with many rock guitar tabs. Submit your tab today.
Tab Gallery
Tab Gallery has a compilation of christian, rock, and country tabs all in one place. Come visit us.