Guitar Tabs
song title    band name

Join Us Today!

Don't strum alone...
be a part of the largest online Christian music community. Browse thousands of guitar tabs and chat w/ musicians like yourself.


It's Free!

This tab has been rated a 4.83 out of 5 for accuracy. (12 votes)Sorry, but you must be logged in to rate this tab.
Click here to log-in, or you can click here to register.
(Registration is free)

All songs owned by corresponding publishing company. If you make copies of any song on this website, be sure to report your usage to CCLI.
Submitted by: YouAreMyJoy322

Kutless
We Fall Down

Standard Tunning (E,A,D,G,B,e)

Intro

B --6---9---7---6---6-------6---7---7--6---9---7---6---6------6---7
G 6---6---------------6--8---------------6---------------6--8------

B 7--6---9---7---6---6------6---7--7--6---9---7---6---6------6---7
G -----6---------------6--8-------------6---------------6--8------

Verse

 F#  C#  F#  B   C#
e-2---4---2---2---4---
B-2---6---2---4---6---
G-3---6---3---4---6---
D-4---6---4---4---6---
A-4---4---4---2---4---
E-2---4---2---2---4---




Chorus

  B  F#  C#
e-2---2---4-
B-4---2---6-
G-4---3---6-
D-4---4---6-
A-2---4---4-
E-2---2---4-




2nd Verse

  F#  C#  F#  B   C#
e-2---4---2---2---4---
B-2---6---2---4---6---
G-3---6---3---4---6---
D-4---6---4---4---6---
A-4---4---4---2---4---
E-2---4---2---2---4---


Chorus

  B  F#  C#
e-2---2---4-
B-4---2---6-
G-4---3---6-
D-4---4---6-
A-2---4---4-
E-2---2---4-





Bridge to Solo
B --6---9---7---6---6-------6---7---7--6---9---7---6---6------6---7
G 6---6---------------6--8---------------6---------------6--8------

Solo
e|--------------------|--------------------------9---8-9-6---------------| 
B|-6h7p6--------------|-6h7p6-------------6---9---------------9---7---6--|
G|-------8-6---6------|-------8-6-------6---6---6---6-------6---6---6---6|
D|-----------8---8-6-6|-----------8---8----------------------------------| 
A|--------------------|-------------9------------------------------------|
E|--------------------|--------------------------------------------------|

Chorus

  B  F#  C#
e-2---2---4-
B-4---2---6-
G-4---3---6-
D-4---4---6-
A-2---4---4-
E-2---2---4-


Credit goes to anyone that had corrections on past tabs for this song, 
I just felt like puttin all the ones that sounded right together. 
I play it with the song n it sounds perfect.

Comments about this tab

iflysioux - 2006-02-02

PERFECT! ><> (in my opinion)


Darkicelyfe14 - 2006-03-15

Ok this tab is so awesome... It really sounds just like the song... Only thing missing is the part of the intro where guitar 2. comes in... You know the distorted part after guitar one starts playing...

Oh and does anyone know what type of distortion or distortion settings they use... 'Cause I really wanna get it sound just like the song...


Kutlessfan501 - 2006-03-29

Great job on the tabs. My band and I are going to use this song in our gigs.
Mucho bueno. (Very Good)


akaukal - 2006-04-11

for distortion they use a special pedal called a Thrash pedal. they are hard to find.


iflysioux - 2006-04-25

Just regular distortion sounds close enough.


bkniceley - 2006-12-19

ok umm after listening to the solo over and over again i knew i was playing something wrong.. anyway i found the 2 notes i wasnt picking that are in the solo so it actually looks like this:

e|--------------------|---------------------------9---8-6----------------|
B|-6h7p6--------------|-6h7p6--------------6---9--------------9---7---6--|
G|-------8-6---6------|-------8-6--------6---6---6---6-6----6---6---6---6|
D|-----------8---8-6-6|-----------8-8--8---------------------------------|
A|--------------------|--------------9-----------------------------------|
E|--------------------|--------------------------------------------------|


hiryuman07 - 2007-02-08

The Chorus Should Be

D-4-4-4-4-4-4-4-4-6-6-6-6-]
A-2-2-2-2-4-4-4-4-4-4-4-4-]
D---------4-4-4-4---------]


thebarrylegend - 2007-02-19

ive had a look at the bridges and solos. i think that the solo is better in the key of E so move it up a fret.
the chords in my view should be E B C#m A B for the verse and A E B for the chorus.
go with whatever you want but this sounds awesome!!!!


hiryuman07 - 2007-03-21

Dude i seen them live play this sing and they played in



C#-5-5-7-
G#-3-5-5-
C#---5-0-


Add a comment/correction

Complimentary Christian Ringtones
Dadamobile and CGR have teamed up to bring your favorite Christian artists right to your phone. Sign up today and get 10 complementary ringtones!
Tab Country
Did you know CGR has a sister site w/ country guitar tabs? Well we do! Its called Tab Country. It has a great archive with a lot of country tabs.
Rockin Tabs
Are you looking for a site that has rock guitar tabs? Then Rockintabs.com is the place for you. It is a budding site with many rock guitar tabs. Submit your tab today.
Tab Gallery
Tab Gallery has a compilation of christian, rock, and country tabs all in one place. Come visit us.