Guitar Tabs
song title    band name

Join Us Today!

Don't strum alone...
be a part of the largest online Christian music community. Browse thousands of guitar tabs and chat w/ musicians like yourself.


It's Free!

This tab has been rated a 4.33 out of 5 for accuracy. (3 votes)Sorry, but you must be logged in to rate this tab.
Click here to log-in, or you can click here to register.
(Registration is free)

All songs owned by corresponding publishing company. If you make copies of any song on this website, be sure to report your usage to CCLI.
Submitted by: Adam K

Falling Up-Exhibition
From:Dawn Escapes
Drop C Tuning C-G-C-F-A-D

palm mute=..., etc.
<_>=harmonic
**=let it ring
s=slide

Intro
Piano then
A[----------0---]
F[----------0---]
C[-5---7---10---]
G[-3---5----7---]x4
C[-3---5----7---]

Verse 1
C[-7---5/7--7---5/7--3/3xxx3x3--5/5xxx5x5-]
G[-7---5/7--7---5/7--3/3xxx3x3--5/5xxx5x5-]
C[-7---5/7--7---5/7--3/3xxx3x3--5/5xxx5x5-]

C[-7---5/7--7---5/7--3/3xxx3x3--5/5xxx5-]
G[-7---5/7--7---5/7--3/3xxx3x3--5/5xxx5-]
C[-7---5/7--7---5/7--3/3xxx3x3--5/5xxx5-]

Pre-Chorus
Gtr. 1
D[-5/5/5/5/5/5/5/5/5/5/5/5-]x4
   .......................
Gtr. 2
D[------15------15-------15--------]
A[-12/13---12/13---12--13---12--13-]x4

Chorus
Both Guitars
C[-5/5/5-5/5-7/7-7-12/12/12-12/10-12/12/12/12/10/10-]
G[-3/3/3-3/3-5/5-5--7--7--7--7--7--7--7--7--7--7--7-]
C[-3/3/3-3/3-5/5-5--7--7--7--7--7--7--7--7--7--7--7-]

C[-12/12/12/12/12/12--7-7/7/7/7/7/7/7/7-]
G[-10/10/10/10/10/10--5-5/5/5/5/5/5/5/5-]
C[-10/10/10/10/10/10--5-5/5/5/5/5/5/5/5-]
Always Play Chorus x2

Post-Chorus
A[----------0---]
F[----------0---]
C[-5---7---10---]
G[-3---5----7---]x2
C[-3---5----7---]

Verse 2
F[--<5>-----------<5>--------------------------------]
C[-7--<5>-7/5/7--7--<5>-7/5/7--3/3xxx3x3xxx5/5xxx5x5-]
G[-7------7/5/7--7------7/5/7--3/3xxx3x3xxx5/5xxx5x5-]
C[-7------7/5/7--7------7/5/7--3/3xxx3x3xxx5/5xxx5x5-]

F[--<5>-----------<5>------------------------------]
C[-7--<5>-7/5/7--7--<5>-7/5/7--3/3xxx3x3xxx5/5xxx5-]
G[-7------7/5/7--7------7/5/7--3/3xxx3x3xxx5/5xxx5-]
C[-7------7/5/7--7------7/5/7--3/3xxx3x3xxx5/5xxx5-]

Pre-Chorus

Chorus

Interlude
Gtr. 1
C[-3**s5**s7--3**s5**s7-]
G[-3**s5**s7--3**s5**s7-]
C[-3**s5**s7--3**s5**s7-]
              .
Gtr. 2
D[-5/5/5/5/5/5/5/5/5/5/5/5-]x8
   .......................
Gtr. 3
D[-12---------------12/12-0--12-----------------------]
A[-----12---13--------------------12---13-------------]
F[------------12-14----------------------12-14--<5>---]x2
C[------------------------------------------------<5>-]
Then
Gtr.1
C[-7/7/7/7/7/7/7/7-]
G[-7/7/7/7/7/7/7/7-]
C[-7/7/7/7/7/7/7/7-]
   ...............

Bridge
F[---2-5/4---2/2/2-4/4/4---2-5/4---2/2/2-5/4/2-]
C[-0/2-x/x/0/2/2/2-x/x/x-0/2-x/x/0/2/2/2-x/x/2-]
G[-0/0-3/2/0/0/0/0-2/2/2-0/0-3/2/0/0/0/0-3/2/0-]
C[-0-------0-------------0-------0-------------]

C[-5/5/5/5/5/5/5/5-7/7/7/7/7/7/7/7-]
G[-3/3/3/3/3/3/3/3-5/5/5/5/5/5/5/5-]
C[-3/3/3/3/3/3/3/3-5/5/5/5/5/5/5/5-]
Repeat Bridge

Chorus

Ending
A[----------0---]
F[----------0---]
C[-5---7---10---]
G[-3---5----7---]x3
C[-3---5----7---]
Then
A[--------0---]
F[--------0---]
C[-5---7-10---]
G[-3---5--7---]
C[-3---5--7---]

Tabbed by Adam K

Comments about this tab

tsr4e - 2005-12-31

um........i dont think they used drop c on this


Adam K - 2006-01-01

It don't sound like it on the song but on the bridge
they use the low drop C power chord.


musicfaith.com - 2006-01-03

All their stuff is either drop D or standard E tuning.


Adam K - 2006-01-07

actually there's about 3 of their songs on this album that are drop C.
"Ambience" off of their first album is in drop C#.


emoguitR4ever - 2006-04-03

This song is played in Drop C, otherwise your guitar could not play low enough to correctly get the Bridge.


Hyuuganeji12 - 2006-06-07

Sorry, but you got it all wrong! It's not even in C. The back up guitar is droped d actually, but the lead for the intro is standard tuning. D = The down sturm symbol
V = the up strum symbol (My guitar teacher tabbed out the intro for me, and he plays by ear)
Section 1 Section 2
-------------------|------------|
-------------------|------------|
------4-------4----|------------|
------4-------4----|-2-0-5-5-5-5|
-0h2--2--0h2--2----|------------|
-0h2--2--0h2--2----|------------|
DV DV

Do section 1 and 2 three times and then
play 1 and do this:

-----------------------
------------------------
------------------------
-0-(4)--(4)-(4)-(4)-(4)-
------------------------
------------------------


Hyuuganeji12 - 2006-06-07

"section 2" is suppose to be over the 2 0 55555 ^_^


Te eF Kay - 2006-12-29

they could just use a wammy pedal for the bridge


Add a comment/correction

Complimentary Christian Ringtones
Dadamobile and CGR have teamed up to bring your favorite Christian artists right to your phone. Sign up today and get 10 complementary ringtones!
Tab Country
Did you know CGR has a sister site w/ country guitar tabs? Well we do! Its called Tab Country. It has a great archive with a lot of country tabs.
Rockin Tabs
Are you looking for a site that has rock guitar tabs? Then Rockintabs.com is the place for you. It is a budding site with many rock guitar tabs. Submit your tab today.
Tab Gallery
Tab Gallery has a compilation of christian, rock, and country tabs all in one place. Come visit us.