Guitar Tabs
song title    band name

Join Us Today!

Don't strum alone...
be a part of the largest online Christian music community. Browse thousands of guitar tabs and chat w/ musicians like yourself.


It's Free!

This tab has been rated a 4.50 out of 5 for accuracy. (2 votes)Sorry, but you must be logged in to rate this tab.
Click here to log-in, or you can click here to register.
(Registration is free)

All songs owned by corresponding publishing company. If you make copies of any song on this website, be sure to report your usage to CCLI.
Submitted by: mmggppmgp

Song: Last Christmas
Artist: Hawk Nelson
Album: Happy Christmas (volume 4)

I first heard this song in the radio, and it is pretty cool, so i decide to
tab it out. I think the Album where it came from is put together by Tooth and Nail.

The Whole song: if I am not mistaken it is all
C Am Dm G this is for people who cannot read tabs :D

Intro:
Rythm Guitar-Palm mute 
     C (C5)      Am (A5)       Dm (D5)      G (G5)
e-----------------------------------------------------
B-----------------------------------------------------
G-555555555555--------------777777777777--------------
D-555555555555-777777777777-777777777777-555555555555-
A-333333333333-777777777777-555555555555-555555555555-
E--------------555555555555--------------333333333333-

Lead Guitar
e----------------------------------------------------------
B---8---------------------8-5---------8-5------------------
G-------------4-5-7-5---------5-----------5----------------
D-5~--5~--5-7---------7~--------7-----------7-5~-----------
A---------------------------------8~--------------8-7-5----
E-------------------------------------------------------8~-


Verses: I dunno maybe it is choruses, but so u know its the part
        after the intro.

e-----------------------------------------------------
B-----------------------------------------------------
G-555555555555--------------777777777777--------------
D-555555555555-777777777777-777777777777-555555555555-
A-333333333333-777777777777-555555555555-555555555555-
E--------------555555555555--------------333333333333-


Break: or chorus- the part after the "verse"
with delay... 
e---------------------------------------------
B-------3-----------1-----------3-----------0-
G---5---------4---4-------5---5-------5---5---
D---------------------------------------------
A-3---3-----0---0-------5---5-----------------
E-----------------------------------3---3-----

there is a piano/synth sounding thing the second time around on the first 
break.

note: this is one octave lower than what it is cuz my guitar cant 
      hit some of the notes being played

e--------------------------8--10------8~--10-------8--10-------13~-15~--
B-8--10-----8~--10-----(2x)------8-10--------8-10--------8-10-----------
G-------7-9-------7-9---------------------------------------------------

Then "Verses"... 
Then Break again but only once... 
then the piano sounding thing again by itself
one octave lower with a slight variation like this

e--------------------------8--10------8~--10-------------13-12~-
B-8--10-----8~--10-----(2x)------8-10--------8-10---(2x)---------
G-------7-9-------7-9--------------------------------------------

After that the intro...
then everything drops of for like about 24 counts then the play Dm G
then Intro, but with singing

that is pretty much it, I hope i communicated the song well, because if
I am pretty sure all the parts of the song is in this tab. I hope You like
it and u understood me.

For Questions and Comments- michael_97124@hotmail.com

God BLess.

Comments about this tab

mmggppmgp - 2006-01-05

e-------------------------------------5--------------------
B---8---------------------8-5-----------6------------------
G-------------4-5-7-5---------5-----------7-4--------------
D-5~--5~--5-7---------7~--------7-------------5~-----------
A---------------------------------8~--------------8-7-5----
E-------------------------------------------------------8~-

alrite i realized a correction on the intro tab i tink this is right


maa_wolfe36 - 2006-09-09

what is this song? i own all the hawk nelson c.d.s that i know of and if there's another one out there, i'd like to know.


Skifree0813 - 2006-09-11

yeah the tab is good and messing around with it makes a good tune... i'm not sure what the song is, but i'm nearly positive it's not HN. great tab though.


HDG89 - 2006-11-03

hawk nelson is working on or has finished some Christmas stuff, so that was prob one he heard on the radio.


madguitarist - 2006-11-17

this song you can get on Itunes, along with 2 other HN christmas songs that they just came out with. nice tab!


Add a comment/correction

Complimentary Christian Ringtones
Dadamobile and CGR have teamed up to bring your favorite Christian artists right to your phone. Sign up today and get 10 complementary ringtones!
Tab Country
Did you know CGR has a sister site w/ country guitar tabs? Well we do! Its called Tab Country. It has a great archive with a lot of country tabs.
Rockin Tabs
Are you looking for a site that has rock guitar tabs? Then Rockintabs.com is the place for you. It is a budding site with many rock guitar tabs. Submit your tab today.
Tab Gallery
Tab Gallery has a compilation of christian, rock, and country tabs all in one place. Come visit us.