Guitar Tabs
song title    band name

Join Us Today!

Don't strum alone...
be a part of the largest online Christian music community. Browse thousands of guitar tabs and chat w/ musicians like yourself.


It's Free!

This tab has not yet been rated for accuracy.Sorry, but you must be logged in to rate this tab.
Click here to log-in, or you can click here to register.
(Registration is free)

All songs owned by corresponding publishing company. If you make copies of any song on this website, be sure to report your usage to CCLI.
Submitted by: sXcountry

“The Nothing That Kills”
As Cities Burn

Intro 
Guitar 1
E|------A------|--------B-------|--C--|
B|-------------|----------------|-----|
G|-------------|----------------|-----|
D|-55-0000-222-|-55-0000000-222-|-222-|
A|-55-0000-222-|-55-0000000-222-|-222-|
D|-55-0000-222-|-55-0000000-222-|-222-|

A-B-A-B-A-B-A-C
	
Guitar 2  (Dist)
E|----------------------|
B|-----------10h12p10-8-|
G|---7-9h10-------------|  
D|-9--------------------| (1X within intro riff)
A|----------------------|
D|----------------------|

Verse 1A
Guitar 1  (Clean)
E|-7-5-7h8-11p10-| (starting on 3rd, every other time thru
B|---------------|	G2’s riff)
G|---------------|
D|---------------|
A|---------------|
D|---------------|

Guitar 2  (Clean)
E|-----------------| 14X 
B|-----------------|
G|-----------------| 
D|---------7h9p7-5-|
A|---5-7/9---------|
D|-9---------------|

Verse 1B
Guitar 1  (Dist)
E|-------------10p9-|
B|-------11p10------|
G|-11p10------------| 4X
D|------------------|
A|------------------|
D|------------------|
	(G2 plays first, then G1)
Guitar 2  (Dist)
E|----------------------|
B|-----------10h12p10-8-|
G|---7-9h10-------------| 4X 
D|-9--------------------|
A|----------------------|
D|----------------------|

Drum Solo
Pre chorus 1
Guitar 1
E|-------------------------------|
B|-------------------------------|
G|-------------------------------|
D|-5000-222-55555555-2--2--44-44-| 1X
A|-5000-222-55555555-2--2--44-44-|
D|-5000-222-55555555-2--2--44-44-|

Chorus 1
Both
E|-----------------|
B|-----------------|
G|-----------------| 2X
D|-9-9-9-9-5-5-5-5-|
A|-9-9-9-9-5-5-5-5-|
D|-9-9-9-9-5-5-5-5-|

Post Chorus 1
Guitar 1
E|----------------------------------|
B|----------------------------------|
G|----------------------------------|
D|-5-55-55-55-55-55---55-55-5-55-55-|
A|-5-55-55-55-55-55---55-55-5-55-55-|
D|-5-55-55-55-55-55---55-55-5-55-55-|

Instrumental Part 1
Guitar 1
E|----|----5X----|
B|----|----------|
G|-/7-|-7\3--3/7-|
D|--x-|-x-x--x-x-|
A|-/5-|-5\1--1/5-|
D|----|----------|

Guitar 2
E|---------------------------------------------------b+r----------|
B|-----7--10^-----11-11-11p10-11/14-14-14-12\10-10\7-7^-7p5-5-5p3-|
G|---7--------7---------------------------------------------------|
D|-7--------------------------------------------------------------|
A|----------------------------------------------------------------|
D|----------------------------------------------------------------|

E|-b+r--------|
B|-3^---------|
G|----4p2-4p2-|
D|------------|
A|------------|
D|------------|

Part 2

Guitar 1  (Clean)
E|-------------17-------------------17~-| (Comes in after 2nd)
B|----12-14/15----15-12----12-14/15-----| (Plays after G2 riff)
G|-11-------------------11--------------| 
D|--------------------------------------| 7X
A|--------------------------------------|
D|--------------------------------------| 

Guitar 2 (dist.)
E|----------|
B|----------| (comes in first)
G|-----0~~~-| 
D|---4------| 8X
A|-2--------|
D|----------|

Pre Solo
Guitar 1
E|--------------------|
B|--------------------|
G|--------------------|
D|-55555555--77777777-| 2X
A|-55555555--77777777-|
D|-55555555--77777777-|

Guitar 2 (dist.)
E|-------------|
B|-------------| 
G|-00000000~~~-| 
D|-44444444~~~-| 4X 
A|-22222222~~~-|
D|-------------|

Solo
Guitar 1 (plays under solo)
E|---------------------------------------------|
B|---------------------------------------------|
G|---------------------------------------------|
D|-9999-5555-9999-5555-12121212-9999-7777-9999-|
A|-9999-5555-9999-5555-12121212-9999-7777-9999-|
D|-9999-5555-9999-5555-12121212-9999-7777-9999-|

Guitar 2
E|-------------------------------------------
B|-------------------------------------------
G|-------------9-11---------9-11-14-11-14/16-
D|-/9--9-11-12------9-11-12------------------
A|-------------------------------------------
D|-------------------------------------------

-------------------------------------------------------
-------------------------------------------------------
-16-16-16-16-16-16-16-16p14-14-18p16-16-16p14-14-14p12-
-------------------------------------------------------
-------------------------------------------------------
-------------------------------------------------------

-----------------------------------------------16h18-------16h18-
-------11-15-------11-15-------11-15-/15-15h17-------15h17-------
-11h13-------11h13-------11h13-----------------------------------
-----------------------------------------------------------------
-----------------------------------------------------------------
-----------------------------------------------------------------

-------------18---------------------------------------------b+r-
-17p15-17p15----17p15-17p15-17\13-13\11-15-13\11-11-11\9-9\7-7^-
----------------------------------------------------------------
----------------------------------------------------------------
----------------------------------------------------------------
----------------------------------------------------------------

--------------|
-5\3-3^-------|
--------2h4p2-|
--------------|
--------------|
--------------|

Bridge
Guitar 1 (Clean)
E|---------------------------------|
B|---------------------------------|
G|---------------------------------|
D|-11-11-111111-111111-7-7-777-777-| 12X Clean 
A|-9--9--9-9-9--9-9-9--5-5-555-555-| 4X w/ Dist
D|-9--9--9-9-9--9-9-9--5-5-555-555-|

(Guitar 1 pauses between the clean and distorted 
  for one time through the riff below.)

Guitar 2  (comes in after 8th time above)
E|-----------------------------------------------|
B|-----------------------------------------------| Clean
G|-----------------------------------------------|   
D|---12---11---12---9---11---12---11---9---9---9-| (Plays until the end)
A|-9----9----9----9---9----9----9----9---9---9---| 
D|-----------------------------------------------|
	
Bridge Continued
Guitar 1
E|------------------------------------|
B|------------------------------------|
G|-...-...-...-...-...----------------|
D|-555-000-555-000-333-11-11-11-9-9-9-| 2X
A|-555-000-555-000-333-9--9--9--7-7-7-|
D|-555-000-555-000-333-9--9--9--7-7-7-|


Ending
Both
E|----------------|----|
B|------2X--------|-1X-|
G|----------------|----|
D|-000000-99-7777-|-0~-|
A|-000000-99-7777-|-0~-|
D|-000000-99-7777-|-0~-|

This is a great song by As Cities Burn, a band that more people need to hear,
they are great. This was a really hard song to do because thre is so much 
going on, and it is not exact, but it's accurate.

Buy their CD: "Son, I Loved You at Your Darkest"

Comments about this tab

No comments/corrections found. Add your own

Complimentary Christian Ringtones
Dadamobile and CGR have teamed up to bring your favorite Christian artists right to your phone. Sign up today and get 10 complementary ringtones!
Tab Country
Did you know CGR has a sister site w/ country guitar tabs? Well we do! Its called Tab Country. It has a great archive with a lot of country tabs.
Rockin Tabs
Are you looking for a site that has rock guitar tabs? Then Rockintabs.com is the place for you. It is a budding site with many rock guitar tabs. Submit your tab today.
Tab Gallery
Tab Gallery has a compilation of christian, rock, and country tabs all in one place. Come visit us.