Guitar Tabs
song title    band name

Join Us Today!

Don't strum alone...
be a part of the largest online Christian music community. Browse thousands of guitar tabs and chat w/ musicians like yourself.


It's Free!

This tab has been rated a 5.00 out of 5 for accuracy. (1 vote)Sorry, but you must be logged in to rate this tab.
Click here to log-in, or you can click here to register.
(Registration is free)

All songs owned by corresponding publishing company. If you make copies of any song on this website, be sure to report your usage to CCLI.
Submitted by: IncuThrice07

-------------------------------------------------------------------------------
               NOTHING BUT THE BLOOD - Jadon Lavik
-------------------------------------------------------------------------------

By:  Gary(garyhale@spu.edu)

~   - let ring out
/ \ - slide
h   - hammer on
p   - pull off
v   - vibrato

You gotta figure out the finger picking...sorry!

Intro/Verses:
     E  F#m9   E/G# C#m7  A  E/G#  B    E  (Sorry.  Chord names are probably
                                              wrong)
e|------------------------5--------------------------------------------------|
B|-------9----------------5--------------------------------------------------|
G|---9---9------9----9----6---9----8-9--9------------------------------------|
D|---9---7------9----9----7---9----9----9------------------------------------|
A|---7---9-----11----x----0--11----9----7------------------------------------|
E|---0---------------9--------0----------------------------------------------|

Chorus:  (Strumming not defined)
e|--------------------5---------------------------------------5--------------|
B|--------------------5-------------------------9-------------5--------------|
G|---9---8---9---8----6---9---8-9---9---8----9--9---8--9--8---6---9---8-9--9-|
D|---9---9---9---9----7---9---9-----9---9----9--7---9--9--9---7---9---9----9-|
A|---7---6---x---x----0--11---9--------------7--9---6--x--x---0--11---9----7-|
E|-----------9---7--------0---------8---7--------------9--7-------0----------|

Repeat Intro

Repeat Verse

Repeat Chorus

Repeat Intro:  (2x)

Play Chorus but start with 2nd half first, then do the first half

Repeat Chorus

Little Variation on Last Part of Chorus:  (2x, then end the song regular)
e|---------------------------------------------------------------------------|
B|---------------------------------------------------------------------------|
G|-------8--9--9~------------------------------------------------------------|
D|-------9--9--9~------------------------------------------------------------|
A|-------x--x--x-------------------------------------------------------------|
E|-------7--8--9~------------------------------------------------------------|

GUITAR 2'S PARTS:
-----------------
Intro Leads:
e|-----4-7-4-----------------------------------------------7-----------------|
B|-5-7-------7-5/7---7h9p7-----------------------------7/9-------------------|
G|-------------------------9-6-------------------------------9/11-9----------|
D|-----------------------------9------9h11~-------------------------11-9~----|
A|-------------------------------9h11----------------------------------------|
E|---------------------------------------------------------------------------|

1st Break Leads:
e|----12-11-7-9~--7-9-9/11-9-7-----------------------------------------------|
B|-12--------------------------7/9-7---------------9-10p9-7/9----------------|
G|-----------------------------------9~-------9/11------------9--------------|
D|---------------------------------------9/11-------------------9h11-9-------|
A|---------------------------------------------------------------------11-9-7|
E|---------------------------------------------------------------------------|

1st Break Lead Cont'd:
e|---------------------------------------------------------------------------|
B|---------------------------------------------------------------------------|
G|---------------------------------------------------------------------------|
D|---------------------------------------------------------------------------|
A|-9/11-9-7-9/11-9-7---7-----------------------------------------------------|
E|-------------------9---0~--------------------------------------------------|

Electric Solo:
e|---------------------------------------------------------------------------|
B|--------9-12v----------9/12------------------------------------------------|
G|---9-11-----------9h11------11-9-------------------------------------------|
D|-9--------------9----------------11~---------------------------------------|
A|---------------------------------------------------------------------------|
E|---------------------------------------------------------------------------|

Acoustic Solo:
e|---------------------------------------------------------------------------|
B|------9------12--------------9------9--------------------------------------|
G|-9h11---11-9----11-11~--9h11---11-9----------------------------------------|
D|--------------------------------------9-9~---------------------------------|
A|---------------------------------------------------------------------------|
E|---------------------------------------------------------------------------|

Maybe I'll finish the tab someday.  I'm sure you can play this with open chords
but for some reason I tabbed it this way because it was where I figured it all
out.  Enjoy!
http://www.geocities.com/ggtabs07
===============================================================================

Comments about this tab

JnCoBoB - 2006-03-18

Great Job!! After palying around with I found a voicung for the E/G# that I prefer. Try -0- High E
-5-
-4-
-6-
-7-
-0- Low E


Add a comment/correction

Complimentary Christian Ringtones
Dadamobile and CGR have teamed up to bring your favorite Christian artists right to your phone. Sign up today and get 10 complementary ringtones!
Tab Country
Did you know CGR has a sister site w/ country guitar tabs? Well we do! Its called Tab Country. It has a great archive with a lot of country tabs.
Rockin Tabs
Are you looking for a site that has rock guitar tabs? Then Rockintabs.com is the place for you. It is a budding site with many rock guitar tabs. Submit your tab today.
Tab Gallery
Tab Gallery has a compilation of christian, rock, and country tabs all in one place. Come visit us.