Guitar Tabs
song title    band name

Join Us Today!

Don't strum alone...
be a part of the largest online Christian music community. Browse thousands of guitar tabs and chat w/ musicians like yourself.


It's Free!

This tab has been rated a 2.50 out of 5 for accuracy. (2 votes)Sorry, but you must be logged in to rate this tab.
Click here to log-in, or you can click here to register.
(Registration is free)

All songs owned by corresponding publishing company. If you make copies of any song on this website, be sure to report your usage to CCLI.
Submitted by: Burrahobbit

Artist: Falling Up
Album: Dawn Escapes
Song: Fearless
Copyright 2005 Falling Up Music (ASCAP), Thirsty Moon River Publishing 
(ASCAP), Michael Baskette Publishing (BMI)


OK, this is a first for me so be nice.

Tuning: Drop D (DADGBE)
h=hammer on

Intro:
D[-0h2-2-2-2-2-2-2-2-0h2-2-2-2-2-2-2-2-2---4---5---4---2---4---5---7-]
A[-------------------------------------------------------------------]
D[-------------------------------------------------------------------]

then...
G[-4--4--4-------4--4--4-----------------------]
D[-2--2--2-7-7---2--2--2-7-7---2-4-5-4-2-4-5-7-]
A[-2--2--2-7-7---2--2--2-7-7---0-0-0-0-0-0-0-0-]
D[-2--2--2-7-7---2--2--2-7-7---0-0-0-0-0-0-0-0-]

Verse:
G[-4--4--4-------4--4--4-----------------------]
D[-2--2--2-7-7---2--2--2-7-7---2-4-5-4-2-4-5-7-]
A[-2--2--2-7-7---2--2--2-7-7---0-0-0-0-0-0-0-0-]
D[-2--2--2-7-7---2--2--2-7-7---0-0-0-0-0-0-0-0-] x2

then...
E[-7--8--8--8---7--8--8--8---3--2--2---]
B[--55-55-55-----55-55-55-----00-00----]

Chorus:
D[-7--9--5-7--9--5-7--9--5-7--9--5-11-12-9-11-12-9-11-12-9-11-12-9-]
A[-5--5--5-5--5--5-5--5--5-5--5--5-9--9--9-9--9--9-9--9--9-9--9--9-]
D[-5--5--5-5--5--5-5--5--5-5--5--5-9--9--9-9--9--9-9--9--9-9--9--9-]

D[-2--4--0-2--4--0-2--4--0-2--4--0-9--11-7-9--11-7-9--11-7-9--11-7-]
A[-0--0--0-0--0--0-0--0--0-0--0--0-7--7--7-7--7--7-7--7--7-7--7--7-]
D[-0--0--0-0--0--0-0--0--0-0--0--0-7--7--7-7--7--7-7--7--7-7--7--7-]

D[-4--5--2-4--5--2-4--5--2-4--5--2-7--9--5-7--9--5-7--9--5-7--9--5-]
A[-2--2--2-2--2--2-2--2--2-2--2--2-5--5--5-5--5--5-5--5--5-5--5--5-]
D[-2--2--2-2--2--2-2--2--2-2--2--2-5--5--5-5--5--5-5--5--5-5--5--5-]

D[-11-12-9-11-12-9-11-12-9-11-12-9-9--11-7-9--11-7-9--11-7-9--11-7-]
A[-9--9--9-9--9--9-9--9--9-9--9--9-7--7--7-7--7--7-7--7--7-7--7--7-]
D[-9--9--9-9--9--9-9--9--9-9--9--9-7--7--7-7--7--7-7--7--7-7--7--7-]

D[-4--5--2-4--5--2-4--5--2-4--5--2-7--9--5-7--9--5-7--9--5-7--9--5-]
A[-2--2--2-2--2--2-2--2--2-2--2--2-5--5--5-5--5--5-5--5--5-5--5--5-]
D[-2--2--2-2--2--2-2--2--2-2--2--2-5--5--5-5--5--5-5--5--5-5--5--5-]

D[-11-12-9-11-12-9-11-12-9-11-12-9-9--11-7-9--11-7-9--11-7-9--11-7-]
A[-9--9--9-9--9--9-9--9--9-9--9--9-7--7--7-7--7--7-7--7--7-7--7--7-]
D[-9--9--9-9--9--9-9--9--9-9--9--9-7--7--7-7--7--7-7--7--7-7--7--7-]

Verse: (same as first)
Chorus: (same as first)

Bridge:
G[-4-------------------------------]
D[-4-------0-------2-------0-------]
A[-2-------0-------2-------0-------]
D[---------0-------2-------0-------] x2

jumps in at...
D[-9--11-7-9--11-7-9--11-7-9--11-7-]
A[-7--7--7-7--7--7-7--7--7-7--7--7-]
D[-7--7--7-7--7--7-7--7--7-7--7--7-]

then...
D[-4--5--2-4--5--2-4--5--2-4--5--2-7--9--5-7--9--5-7--9--5-7--9--5-]
A[-2--2--2-2--2--2-2--2--2-2--2--2-5--5--5-5--5--5-5--5--5-5--5--5-]
D[-2--2--2-2--2--2-2--2--2-2--2--2-5--5--5-5--5--5-5--5--5-5--5--5-]

D[-11-12-9-11-12-9-11-12-9-11-12-9-9--11-7-9--11-7-9--11-7-9--11-7-]
A[-9--9--9-9--9--9-9--9--9-9--9--9-7--7--7-7--7--7-7--7--7-7--7--7-]
D[-9--9--9-9--9--9-9--9--9-9--9--9-7--7--7-7--7--7-7--7--7-7--7--7-] 

D[-4--5--2-4--5--2-4--5--2-4--5--2-7--9--5-7--9--5-7--9--5-7--9--5-]
A[-2--2--2-2--2--2-2--2--2-2--2--2-5--5--5-5--5--5-5--5--5-5--5--5-]
D[-2--2--2-2--2--2-2--2--2-2--2--2-5--5--5-5--5--5-5--5--5-5--5--5-]

D[-11-12-9-11-12-9-11-12-9-11-12-9-7---7---2----]
A[-9--9--9-9--9--9-9--9--9-9--9--9-7---7---2----]
D[-9--9--9-9--9--9-9--9--9-9--9--9-7---7---2----]

Yeah I think thats pretty much it.

God Bless!

Comments about this tab

Burrahobbit - 2006-01-03

btw, i never officially learned how to read/write tabs so if i did anything funny, let me know so i dont do it again.


Stephoguitar - 2006-03-04

well for accemple you wrote this:
G[-4--4--4-------4--4--4-----------------------]
D[-2--2--2-7-7---2--2--2-7-7---2-4-5-4-2-4-5-7-]
A[-2--2--2-7-7---2--2--2-7-7---0-0-0-0-0-0-0-0-]
D[-2--2--2-7-7---2--2--2-7-7---0-0-0-0-0-0-0-0-]

do you need to play the 2224 at the same time? or is it first only 4-4-4--4-4-4 at the G string?


Stephoguitar - 2006-03-04

never mind I got it now:P


heisouronlyhope - 2006-08-12

pretty good better then the other tab because its not drop C but still good tab Im not sure the intro is right because simple nots arent that distorted so it might be power chords well its still a good tab


sac346 - 2007-03-22

Better than the other tab? the song is in drop c. as you progress on the guitar, you'll understand.


Add a comment/correction

Complimentary Christian Ringtones
Dadamobile and CGR have teamed up to bring your favorite Christian artists right to your phone. Sign up today and get 10 complementary ringtones!
Tab Country
Did you know CGR has a sister site w/ country guitar tabs? Well we do! Its called Tab Country. It has a great archive with a lot of country tabs.
Rockin Tabs
Are you looking for a site that has rock guitar tabs? Then Rockintabs.com is the place for you. It is a budding site with many rock guitar tabs. Submit your tab today.
Tab Gallery
Tab Gallery has a compilation of christian, rock, and country tabs all in one place. Come visit us.