Guitar Tabs
song title    band name

Join Us Today!

Don't strum alone...
be a part of the largest online Christian music community. Browse thousands of guitar tabs and chat w/ musicians like yourself.


It's Free!

This tab has been rated a 3.00 out of 5 for accuracy. (2 votes)Sorry, but you must be logged in to rate this tab.
Click here to log-in, or you can click here to register.
(Registration is free)

All songs owned by corresponding publishing company. If you make copies of any song on this website, be sure to report your usage to CCLI.
Submitted by: EpyonZERO

Artist: Spoken
Album: Last Chance to Breathe
Song: Time After Time

In concert they played it in half step down standard, but I like it in drop d
Low to high- DADGBE

Here are th chords if you don't already know them
High F# (X-9-11-11-11-X)
D#      (X-6-8-8-8-X)
B       (X-2-4-4-4-X)
Bsus    (X-2-4-4-5-X)

Intro
F# D# B 2X

Verse

Strum B and add a suspension every two beats

Bridge (on numbers do bottom three strings, DAD)

2-24-4441-12-222-2-22-222-1-11-111
2-24-4441-12-222 Back to Verse

Chorus

4----6---2--4B
4----6---2-4-B

The first time, the 4 is barely played right befor the B, and every other 
time it is more noticible, listen to the CD for the rhythm.

Here's my interpretation of the solo is, get the timing from the CD.
----------------------------------------------------------------------
----------11b11-11-----------9b--------9b9----------------------------
-------11--------------9--11----11-11------11-9----9------------------
--9-11--------------11--------------------------11---11-9---9-9-11b-9-
----------------------------------------------------------------------
----------------------------------------------------------------------

*Here I hold the 7 with my first finger and do a bend/pull off on the 9
                              *
------------------------9b-7-7-9bp-7-9bp-7-9b-11-9-7~~~~~~
----------11b11-9-11-12---------------------------------
-------11-----------------------------------------------
--9-11--------------------------------------------------
--------------------------------------------------------
--------------------------------------------------------

Good luck!

Comments about this tab

No comments/corrections found. Add your own

Complimentary Christian Ringtones
Dadamobile and CGR have teamed up to bring your favorite Christian artists right to your phone. Sign up today and get 10 complementary ringtones!
Tab Country
Did you know CGR has a sister site w/ country guitar tabs? Well we do! Its called Tab Country. It has a great archive with a lot of country tabs.
Rockin Tabs
Are you looking for a site that has rock guitar tabs? Then Rockintabs.com is the place for you. It is a budding site with many rock guitar tabs. Submit your tab today.
Tab Gallery
Tab Gallery has a compilation of christian, rock, and country tabs all in one place. Come visit us.