Guitar Tabs
song title    band name

Join Us Today!

Don't strum alone...
be a part of the largest online Christian music community. Browse thousands of guitar tabs and chat w/ musicians like yourself.


It's Free!

This tab has been rated a 4.62 out of 5 for accuracy. (13 votes)Sorry, but you must be logged in to rate this tab.
Click here to log-in, or you can click here to register.
(Registration is free)

All songs owned by corresponding publishing company. If you make copies of any song on this website, be sure to report your usage to CCLI.
Submitted by: Adam K

Demon Hunter-One Thousand Apologies
From:The Triptych
Drop B Tuning B-F#-B-E-G#-C#

b=bend
rb=return bend
h=hammer on 
v=vibrato
palm mute=..., etc.

Intro
Gtr. 2
B [-10----12---2/7-------5-]
F#[--7----10---2/3-------5-]x2
B [--7----10---2/3-------5-]
Gtr. 1
C#[-5------------5------------5-------------------------]
G#[---b5rb-3/5/3---b5rb-3/5/3---b5rb-3/5/3--------------]
E [-----------------------------------------5-4h5/4/2/0-]

C#[-5------------5------------5--------------------------]
G#[---b5rb-3/5/3---b5rb-3/5/3---b5rb-3/5/3---------------]
E [-----------------------------------------5-4h5/4/2/4v-]
Then
Gtr. 2
B [-7/7/7/7--7/7/7/7-]
F#[-7/7/7/7--7/7/7/7-]
B [-7/7/7/7--7/7/7/7-]

Verse 1
Both guitars
(Those numbers are all single digits)
B [----555---555--55--------------------222---222--22---------------------]
F#[-000---000---00-----555---555--55---------------------555---555/5p3/33-]x2
B [-----------------555---555---55---222---222---22---333---333-----------]
Then
B [--7----5----2----3-]
F#[-10----5----2----3-]x2
B [--7----5----2----3-]

Pre-Chorus
(Low B string)
B[-5/5/5-5/7-3/3/3-3/7-2/2/2-2/7-3/3/3/3-]

Chorus
Gtr. 2
B [-10----12---2/7-------5-]
F#[--7----10---2/3-------5-]x2
B [--7----10---2/3-------5-]
Gtr. 1
C#[-15/15/15----15/15/15------------------------]
G#[----------13----------13----10--12--13--13/8-]

C#[-15/15/15----15/15/15----------------------------]
G#[----------13----------13----10--12/13/12--10--10-]

Interlude
Gtr. 2
B [-7/7/7/7--7/7/7/7-]
F#[-7/7/7/7--7/7/7/7-]
B [-7/7/7/7--7/7/7/7-]
    .......  .......

Verse 2
Both guitars
(Those numbers are all single digits)
B [----555---555--55--------------------222---222--22---------------------]
F#[-000---000---00-----555---555--55---------------------555---555/5p3/33-]x2
B [-----------------555---555---55---222---222---22---333---333-----------]
   .......................................................................
Then
B [--7----5----2----3-]
F#[-10----5----2----3-]x2
B [--7----5----2----3-]

Pre-Chorus

Chorus x2

Bridge
Gtr. 2
B [--2--]
F#[--2--]
B [--2--]
Gtr. 1
G#[--9--]
Then
Gtr. 2
E [-5------5------5------(5)-]
B [-5-2----5-2----5-2----(5)-]
F#[-3-2----3-2----3-2----(3)-]
B [---2------2------2--------]
Then
Gtr. 2
E [----------5----------5----------5----------5-]
B [-2--------5-2--------5-2--------5-2--------5-]
F#[-2--------3-2--------3-2--------3-2--------3-]
B [-2----------2----------2----------2----------]

Gtr.1
G#[-8/0-b7rb-8/0-7/8/7-8/0-b7rb-8/0-10b-]x2

G#[-8/0/8/0/8/0/8/0/8/0/8/0/10/0/10/0-7/0/7/0/7/0/7/0/7/0/7/0/7/0/10b-]x2

Pre-Chorus

Chorus x2

Ending
B [-7/7/7/7--7/7/7/7-]
F#[-7/7/7/7--7/7/7/7-]
B [-7/7/7/7--7/7/7/7-]

Tabbed by Adam K





Comments about this tab

Jimbo12 - 2005-12-16

This tab is way better than 3.33, it's gotta be a straight 5.


Adam K - 2005-12-16

thanks.


sXcountry - 2006-02-18

Nice.

Crazy tuning, tho!

I don't think anyone besides Demon Hunter would even think of doing that.


guitarguy38 - 2006-05-25

TFK has some songs in drop B


Mosher for God - 2006-06-20

Great job on this one to man.

Love the song,

God Bless,

Josh


ilovejesus0307 - 2006-11-16

amazing tab. you are the bomb at tabbing dude.
at the end of the intro, that isnt a vibrato, its a pinch harmonic.
one of the most glorious sounds a guitar can produce.
props to you. greatness


churchpunk-92 - 2008-01-31

this is played in drop C# i heard Ryan clark say that in an interview


Add a comment/correction

Complimentary Christian Ringtones
Dadamobile and CGR have teamed up to bring your favorite Christian artists right to your phone. Sign up today and get 10 complementary ringtones!
Tab Country
Did you know CGR has a sister site w/ country guitar tabs? Well we do! Its called Tab Country. It has a great archive with a lot of country tabs.
Rockin Tabs
Are you looking for a site that has rock guitar tabs? Then Rockintabs.com is the place for you. It is a budding site with many rock guitar tabs. Submit your tab today.
Tab Gallery
Tab Gallery has a compilation of christian, rock, and country tabs all in one place. Come visit us.