Guitar Tabs
song title    band name

Join Us Today!

Don't strum alone...
be a part of the largest online Christian music community. Browse thousands of guitar tabs and chat w/ musicians like yourself.


It's Free!

This tab has been rated a 4.33 out of 5 for accuracy. (3 votes)Sorry, but you must be logged in to rate this tab.
Click here to log-in, or you can click here to register.
(Registration is free)

All songs owned by corresponding publishing company. If you make copies of any song on this website, be sure to report your usage to CCLI.
Submitted by: bobiscool278

Stars
Artist: switchfoot
Album: Nothing is sound
Columbia records 2005
ok noone has this yet, so here it is! enjoy
|-----------------|-----------------|-----------------|------------------|
|-----------------|-----------------|-----------------|------------------|
|-----------------|-----------------|-----------------|------------------|
|-2-0-0-----0-0-4-|-0-0-0-2-0-0-6-9-|-7-0-0-----0-0-4-|-0-0-0-2-0-2-2-2--|
|-2-0-0-4-5-0-0---|-0-0-0---0-0-----|---0-0-4-5-0-0---|-0-0-0---0--------|
|-2-0-0-----0-0---|-0-0-0---0-0-----|---0-0-----0-0---|-0-0-0---0--------|



|-----------------|-----------------|-----------------|------------------|
|-----------------|-----------------|-----------------|------------------|
|-----------------|-----------------|-----------------|------------------|
|-0-2-0-----0-0-4-|-0-0-0-2-0-0-6-9-|-7-0-0-----0-0-4-|-0-0-0-2-0-2-2-2--|
|-0-2-0-4-5-0-0---|-0-0-0---0-0-----|---0-0-4-5-0-0---|-0-0-0---0--------|
|-0-2-0-----0-0---|-0-0-0---0-0-----|---0-0-----0-0---|-0-0-0---0--------|



|-----------------|-----------------|-----------------|------------------|
|-----------------|-----------------|-----------------|------------------|
|-----------------|-----------------|-----------------|------------------|
|-0-2-0-----0-0-4-|-0-0-0-2-0-0-6-9-|-7-0-0-----0-0-4-|-0-0-0-2-0-2-2-2--|
|-0-2-0-4-5-0-0---|-0-0-0---0-0-----|---0-0-4-5-0-0---|-0-0-0---0--------|
|-0-2-0-----0-0---|-0-0-0---0-0-----|---0-0-----0-0---|-0-0-0---0--------|


 
|-----------------|-----------------|-----------------|-----------------|
|-----------------|-----------------|-----------------|-----------------|
|-----------------|-----------------|-----------------|-----------------|
|-0-2-0-----0-0-4-|-0-0-0-2-0-0-6-9-|-7-0-0-----0-0-4-|-0-0-0-2-0-2-2-2-|
|-0-2-0-4-5-0-0---|-0-0-0---0-0-----|---0-0-4-5-0-0---|-0-0-0---0-------|
|-0-2-0-----0-0---|-0-0-0---0-0-----|---0-0-----0-0---|-0-0-0---0-------|


  Gtr II                              Gtr I                   Gtrs I, II
|-----------------|-----------------|-----------------|----------------|
|-----------------|-----------------|-----------------|----------------|
|-----------------|-----------------|-----------------|----------------|
|-0-2-0---------4-|-------2---------|-0-2-0---------4-|-------2--2--2--|
|-0-2-0-4-5---0---|-0-4-----0-2-4-5-|-0-2-0-4-5---0---|-0-4------------|
|-0-2-0-----0-----|-0-4-5---0-2-----|-0-2-0-----0-----|-0-4-5----------|


|-----------------|-----------------|-----------------|----------------|
|-----------------|-----------------|-----------------|----------------|
|-----------------|-----------------|-----------------|----------------|
|-0-2-0---------4-|-------2---------|-0-2-0---------4-|-------2--2--2--|
|-0-2-0-4-5---0---|-0-4-----0-2-4-5-|-0-2-0-4-5---0---|-0-4------------|
|-0-2-0-----0-----|-0-4-5---0-2-----|-0-2-0-----0-----|-0-4-5----------|
alright have fun with it, if you listen carefully, there are two guitars 
but thats impossible to tab out

Comments about this tab

switchfootprson - 2006-08-04

this is a good tab. a comment for u next time though, i got kind of confused about were the chorus and versus and stuff were so it be helpful if you could label them


Alex_face - 2006-08-22

sweet. Is there anyone who could tab the new one "Daylight to Break". it's available for download (legally) from their website. it's an awesome song.


underoathrocks - 2006-09-30

It's really confusing, I think it's in Drop D, but there are no specifications.


Switchfoot_ - 2007-01-12

Isnt this song up high on the fretboard(neck of the guitar where the frets are)like the music video?


tobymac the 2nd - 2008-12-28

im not totally sure about this. it is up high but im not sure about the intro part.


Add a comment/correction

Complimentary Christian Ringtones
Dadamobile and CGR have teamed up to bring your favorite Christian artists right to your phone. Sign up today and get 10 complementary ringtones!
Tab Country
Did you know CGR has a sister site w/ country guitar tabs? Well we do! Its called Tab Country. It has a great archive with a lot of country tabs.
Rockin Tabs
Are you looking for a site that has rock guitar tabs? Then Rockintabs.com is the place for you. It is a budding site with many rock guitar tabs. Submit your tab today.
Tab Gallery
Tab Gallery has a compilation of christian, rock, and country tabs all in one place. Come visit us.