Guitar Tabs
song title    band name

Join Us Today!

Don't strum alone...
be a part of the largest online Christian music community. Browse thousands of guitar tabs and chat w/ musicians like yourself.


It's Free!

This tab has not yet been rated for accuracy.Sorry, but you must be logged in to rate this tab.
Click here to log-in, or you can click here to register.
(Registration is free)

All songs owned by corresponding publishing company. If you make copies of any song on this website, be sure to report your usage to CCLI.
Submitted by: JesusmyKing

 Artist: Casting Crowns
 Song title: Stained Glass Masquerade
 

 This is a corrected verson of the one I submitted earlier. I think it
sounds alot better seeing there was a few mistakes in the other one.

 riff 1                                   riff 2

 e--5--5--7-8---                       e--5--5--7--5--------           
 b--7^----------                       b--7^---------7--5-4-
 d--------------                       d--------------------
 g--------------                       g--------------------
 a--------------                       a--------------------
 E--------------                       E--------------------


  Solo:
e--/7-7--8^-9~~-10^-10~~--/12~--14~~--15~-15\-------
b--/7---------------------/12~----------------------
d---------------------------------------------------
g---------------------------------------------------
a---------------------------------------------------
E---------------------------------------------------
   key: ^ =bend
        ~ =vibrato
        \ =slide down
        / =slide up
 also if anyone wants to know what effect there are using in the intro, 
 I'm pretty sure it is a flanger with a little distortion.

 I hope this verson helps you out better, it's an awseome song with a great 
message.
 God Bless, 
 JesusmyKing

Comments about this tab

JesusmyKing - 2006-01-31

Here is the intro for the song. I hope you are find it useful!!

e---------------------0----------2-------------
b-----7--/-2----------0----------3-------------
g-----7--/-2----------1----------2-------------
d-----7--/-2----------2----------0-------------
a--/5----0-----0h1/2--2----------x-------------
E---------------------0-----1/2--2-------------
^use thumb

just use a little bit of flanger and distortion and that should work!!!

JesusmyKing


dragonseed - 2006-03-29

the solo frets are right but the solo is played using a slide


JesusmyKing - 2006-03-30

Thanks man I'll have to try it out. Never thought of using a slide
but know that you mention it I think your right.


JesusmyKing - 2006-06-11

Can somebody please rate this for me, i want to know if this tab has helped anyone out. thanks and God Bless
Brandon


Add a comment/correction

Complimentary Christian Ringtones
Dadamobile and CGR have teamed up to bring your favorite Christian artists right to your phone. Sign up today and get 10 complementary ringtones!
Tab Country
Did you know CGR has a sister site w/ country guitar tabs? Well we do! Its called Tab Country. It has a great archive with a lot of country tabs.
Rockin Tabs
Are you looking for a site that has rock guitar tabs? Then Rockintabs.com is the place for you. It is a budding site with many rock guitar tabs. Submit your tab today.
Tab Gallery
Tab Gallery has a compilation of christian, rock, and country tabs all in one place. Come visit us.