Guitar Tabs
song title    band name

Join Us Today!

Don't strum alone...
be a part of the largest online Christian music community. Browse thousands of guitar tabs and chat w/ musicians like yourself.


It's Free!

This tab has been rated a 4.67 out of 5 for accuracy. (3 votes)Sorry, but you must be logged in to rate this tab.
Click here to log-in, or you can click here to register.
(Registration is free)

All songs owned by corresponding publishing company. If you make copies of any song on this website, be sure to report your usage to CCLI.
Submitted by: Adam K

Demon Hunter-Fire To My Soul
From:The Triptych
Drop B Tuning B-F#-B-E-G#-C#

slide down=S<
palm mute=..., etc.
slide up=S>
p=pull off
b=bend

Intro
Kinda has backround sound
Gtr. 2
B [-S<-00/1/0-S<-0/1/0/1/0-]
F#[-S<-00/1/0-S<-0/1/0/1/0-]x3
B [-S<-00/1/0-S<-0/1/0/1/0-]
       ..
B [-S<-00/1/0-]
F#[-S<-00/1/0-]
B [-S<-00/1/0-]
       ..
Then Gtr. 1
B [-1-8-1-]
F#[-1-8-1-]
B [-1-8-1-]
Then both guitars
G#[-10---------------------9---------------------]
E [------------7---------------------7-----------]
B [---0-1/0/0----0/1/0/1/0---0-1/0/0---0/1/0/1/0-]
F#[---0-1/0/0----0/1/0/1/0---0-1/0/0---0/1/0/1/0-]x3
B [---0-1/0/0----0/1/0/1/0---0-1/0/0---0/1/0/1/0-]

G#[-10---------------------9--------------]
E [------------7--------------------------]
B [---0-1/0/0----0/1/0/1/0---0-1/0/0--1S>-]
F#[---0-1/0/0----0/1/0/1/0---0-1/0/0--1S>-]
B [---0-1/0/0----0/1/0/1/0---0-1/0/0--1S>-]

Interlude
Gtr. 2
He uses some sort of pedal
B [-12p0/0-12p0/0/12p0/0-12p0/13-]
F#[-12p0/0-12p0/0/12p0/0-12p0/13-]
B [-12p0/0-12p0/0/12p0/0-12p0/13-]
    ............................
B [-12p0/0-12p0/0/12p0/0-12p0/13-]
F#[-12p0/0-12p0/0/12p0/0-12p0/13-]
B [-12p0/0-12p0/0/12p0/0-12p0/13-]
    .................
B [-12p0/0-12p0/0/12p0/0-12p0/13-]
F#[-12p0/0-12p0/0/12p0/0-12p0/13-]x2
B [-12p0/0-12p0/0/12p0/0-12p0/13-]

Verse 1
Gtr. 2
B [-12p0/0-12p0/0/12p0/0-12p0/13-]
F#[-12p0/0-12p0/0/12p0/0-12p0/13-]
B [-12p0/0-12p0/0/12p0/0-12p0/13-]
Gtr. 1
E [-14/14/14/14/14/14/14/14/14/14-]
B [--x--x--x--x--x--x--x--x--x--x-]
F#[-12/12/12/12/12/12/12/12/12/12-]
Then
Gtr. 2
B [-12p0/0-12p0/0/12p0/0-12p0/13-]
F#[-12p0/0-12p0/0/12p0/0-12p0/13-]
B [-12p0/0-12p0/0/12p0/0-12p0/13-]
Gtr. 1
E [-13/13/13/13/13/13/13/13/13/13-]
B [--x--x--x--x--x--x--x--x--x--x-]
F#[-11/11/11/11/11/11/11/11/11/11-]
Then
Gtr. 2
B [-12p0/0-12p0/0/12p0/0-12p0/13-]
F#[-12p0/0-12p0/0/12p0/0-12p0/13-]
B [-12p0/0-12p0/0/12p0/0-12p0/13-]
Gtr. 1
E [-12/12/12/12/12/12/12/12/12/12-]
B [--x--x--x--x--x--x--x--x--x--x-]
F#[-10/10/10/10/10/10/10/10/10/10-]
Then
Gtr. 2
B [-12p0/0-12p0/0/12p0/0-12p0/13-]
F#[-12p0/0-12p0/0/12p0/0-12p0/13-]
B [-12p0/0-12p0/0/12p0/0-12p0/13-]
Gtr. 1
E [-11/11/11/11/11/11/11/11/11/11-]
B [--x--x--x--x--x--x--x--x--x--x-]
F#[--9--9--9--9--9--9--9--9--9--9-]
Repeat verse.

Pre-Chorus
B [-6/5/1-8/7/10-0000-1/0-0/0-0000-1/0-0/0-]
F#[-6/5/1-8/7/10-0000-1/0-0/0-0000-1/0-0/0-]x3
B [-6/5/1-8/7/10-0000-1/0-0/0-0000-1/0-0/0-]
                 ....         ....
B [6/5/1-8/7/10-]
F#[6/5/1-8/7/10-]
B [6/5/1-8/7/10-]

B [-0/0/1/0-0/0/1/0-0/0/1/0-0/0/1/0-0/0/1/0-0/0/1/0-0/0/1/0-0/0/1/0-]
F#[-0/0/1/0-0/0/1/0-0/0/1/0-0/0/1/0-0/0/1/0-0/0/1/0-0/0/1/0-0/0/1/0-]
B [-0/0/1/0-0/0/1/0-0/0/1/0-0/0/1/0-0/0/1/0-0/0/1/0-0/0/1/0-0/0/1/0-]
    ...................................

Chorus
Both Guitars
G#[------------------------10--------------------]
E [----------------------------------7-----------]
B [---0-1/0/0----0/1/0/1/0---0-1/0/0---0/1/0/1/0-]
F#[---0-1/0/0----0/1/0/1/0---0-1/0/0---0/1/0/1/0-]
B [---0-1/0/0----0/1/0/1/0---0-1/0/0---0/1/0/1/0-]

G#[--9---------------------10--------------------]
E [------------7---------------------7-----------]
B [---0-1/0/0----0/1/0/1/0---0-1/0/0---0/1/0/1/0-]
F#[---0-1/0/0----0/1/0/1/0---0-1/0/0---0/1/0/1/0-]x3
B [---0-1/0/0----0/1/0/1/0---0-1/0/0---0/1/0/1/0-]

Interlude
Gtr. 1
E [-10b--]
B [--xb--]
F#[--8b--]
Gtr. 2
E [-12b--]
B [--xb--]
F#[-10b--]

Verse 2
B [-12p0/0-12p0/0/12p0/0-12p0/13-]
F#[-12p0/0-12p0/0/12p0/0-12p0/13-]
B [-12p0/0-12p0/0/12p0/0-12p0/13-]
    ............................
B [-12p0/0-12p0/0/12p0/0-12p0/13-]
F#[-12p0/0-12p0/0/12p0/0-12p0/13-]
B [-12p0/0-12p0/0/12p0/0-12p0/13-]
    .................
B [-12p0/0-12p0/0/12p0/0-12p0/13-]
F#[-12p0/0-12p0/0/12p0/0-12p0/13-]x2
B [-12p0/0-12p0/0/12p0/0-12p0/13-] 

Pre-Chorus

Chorus 2
G#[------------------------10--------------------]
E [----------------------------------7-----------]
B [---0-1/0/0----0/1/0/1/0---0-1/0/0---0/1/0/1/0-]
F#[---0-1/0/0----0/1/0/1/0---0-1/0/0---0/1/0/1/0-]
B [---0-1/0/0----0/1/0/1/0---0-1/0/0---0/1/0/1/0-]

G#[--9---------------------10---------------]
E [------------7----------------------------]
B [---0-1/0/0----0/1/0/1/0---0-1/0/0--1-8-1-]
F#[---0-1/0/0----0/1/0/1/0---0-1/0/0--1-8-1-]
B [---0-1/0/0----0/1/0/1/0---0-1/0/0--1-8-1-]

G#[--9---------------------10--------------------]
E [------------7---------------------7-----------]
B [---0-1/0/0----0/1/0/1/0---0-1/0/0---0/1/0/1/0-]
F#[---0-1/0/0----0/1/0/1/0---0-1/0/0---0/1/0/1/0-]
B [---0-1/0/0----0/1/0/1/0---0-1/0/0---0/1/0/1/0-]

G#[--9---------------------10-----------------]
E [------------7------------------------------]
B [---0-1/0/0----0/1/0/1/0---0-1/0/0--1-8-1-0-]
F#[---0-1/0/0----0/1/0/1/0---0-1/0/0--1-8-1-0-]
B [---0-1/0/0----0/1/0/1/0---0-1/0/0--1-8-1-0-]

Bridge
Gtr. 1
B [-7----8----8----7-]
F#[-5----5----4----4-]x2
Then
Gtr. 2
B [-7----8----8----7-]
F#[-5----5----4----4-]x2
   ..................
Gtr. 1
B [-7----8----8----7-]
F#[-5----5----4----4-]x2
Then

Gtr. 2
B [-7----8----8----7-]
F#[-5----5----4----4-]x2
Gtr. 1
E [-7/9/10/9/7---7/9/10/9/7---9/10--9/10--6/9--6/9-]
B [-----------7------------7-----------------------]x2
Then
Gtr. 1
E [-13/13/13/13/13/13/13/13-]
B [--x--x--x--x--x--x--x--x-]
F#[-11/11/11/11/11/11/11/11-]

Chorus 3
G#[--9---------------------10--------------------]
E [------------7---------------------7-----------]
B [---0-1/0/0----0/1/0/1/0---0-1/0/0---0/1/0/1/0-]
F#[---0-1/0/0----0/1/0/1/0---0-1/0/0---0/1/0/1/0-]x3
B [---0-1/0/0----0/1/0/1/0---0-1/0/0---0/1/0/1/0-]

G#[--9---------------------10------------]
E [------------7---------------------7S<-]
B [---0-1/0/0----0/1/0/1/0---0-1/0/0-----]
F#[---0-1/0/0----0/1/0/1/0---0-1/0/0-----]
B [---0-1/0/0----0/1/0/1/0---0-1/0/0-----]

Tabbed by Adam K



Comments about this tab

Jimbo12 - 2005-12-16

The main verse riff actually goes like this:

F#|----------------------------------|
B |-0-12-0--12-0--12-0--12-0-12-0-13-|


Adam K - 2005-12-16

your right, my bad.
thanks.


GreenCarrot - 2007-04-12

anyone know what kind of pedal or have any idea what kind of effect he uses before that verse part.. cus it sounds really awesome.


Add a comment/correction

Complimentary Christian Ringtones
Dadamobile and CGR have teamed up to bring your favorite Christian artists right to your phone. Sign up today and get 10 complementary ringtones!
Tab Country
Did you know CGR has a sister site w/ country guitar tabs? Well we do! Its called Tab Country. It has a great archive with a lot of country tabs.
Rockin Tabs
Are you looking for a site that has rock guitar tabs? Then Rockintabs.com is the place for you. It is a budding site with many rock guitar tabs. Submit your tab today.
Tab Gallery
Tab Gallery has a compilation of christian, rock, and country tabs all in one place. Come visit us.