Guitar Tabs
song title    band name

Join Us Today!

Don't strum alone...
be a part of the largest online Christian music community. Browse thousands of guitar tabs and chat w/ musicians like yourself.


It's Free!

This tab has been rated a 4.00 out of 5 for accuracy. (2 votes)Sorry, but you must be logged in to rate this tab.
Click here to log-in, or you can click here to register.
(Registration is free)

All songs owned by corresponding publishing company. If you make copies of any song on this website, be sure to report your usage to CCLI.
Submitted by: skillet_rocks12

"Energy" by Skillet
 Tuning: Drop D

Theres already some tabs for this song, but this tab has the hole song

Intro:

E-|------------------------------|--------------------------|-
B-|------------------------------|--------------------------|-
G-|------------------12-12-12-12-|------------------9-9-9-9-|-
D-|-0-0-6-6-5-0--0-0-12-12-12-12-|-0-0-6-6-5-0--0-0-9-9-9-9-|-
A-|-0-0-6-6-5-0--0-0-10-10-10-10-|-0-0-6-6-5-0--0-0-7-7-7-7-|-
D-|-0-0-6-6-5-0--0-0-------------|-0-0-6-6-5-0--0-0---------|-

E-|------------------------------|--------------------------|-
B-|------------------------------|--------------------------|-
G-|------------------12-12-12-12-|------------------9-9-9-9-|-
D-|-0-0-6-6-5-0--0-0-12-12-12-12-|-0-0-6-6-5-0--0-0-9-9-9-9-|-
A-|-0-0-6-6-5-0--0-0-10-10-10-10-|-0-0-6-6-5-0--0-0-7-7-7-7-|-
D-|-0-0-6-6-5-0--0-0-------------|-0-0-6-6-5-0--0-0---------|-


1st Verse:
      Clean
E-|-------------|---------------------------|-------------|-
B-|-------------|---------------------------|-------------|-
G-|------5/7--5-|------5/7--5-|------5/7--5-|-0-XX-5/7--7-|-
D-|-0-XX-5/7--5-|-0-XX-5/7--5-|-0-XX-5/7--5-|-0-XX-5/7--7-|-
A-|-0-XX-3/5--3-|-0-XX-3/5--3-|-0-XX-3/5--3-|-0-XX-3/5--3-|-
D-|-0-XX--------|-0-XX--------|-0-XX--------|-0-XX--------|-

then
    with Distortion
E-|------------|------------|---------------|------------------------|-
B-|------------|------------|---------------|------------------------|-
G-|------5/7--5-|------5/7--5-|------5/7--5-|------------------------|-
D-|-0-XX-5/7--5-|-0-XX-5/7--5-|-0-XX-5/7--5-|-0-XX-------------------|-
A-|-0-XX-3/5--5-|-0-XX-3/5--3-|-0-XX-3/5--3-|-0-XX-2-3-3-3-3-0-3-2-0-|-
D-|-0-XX--------|-0-XX--------|-0-XX--------|-0-XX-------------------|-
                                                . . . . . . . . . (.palm mute)

PreChorus:

E-|---------|--------------|-
B-|---------|--------------|-
G-|---------|--------------|-
D-|-5-6/8-6-|-6/8-8-8-10-8-|-
A-|-5-6/8-6-|-6/8-8-8-10-8-|-
D-|-5-6/8-6-|-6/8-8-8-10-8-|-


Chorus:( I'll give you the cords in each measure,  
         you can figure out the rythm)                                
E-|----------|----------|--------|--------|-
B-|----------|----------|--------|--------|- Play 2 times
G-|----------|-5--------|-7------|-3------|-        (Play 4 times 
D-|-0----5---|-5----3---|-7----5-|-3----3-|-         on the last chorus)
A-|-0----5---|-3----3---|-5----5-|-1----3-|-
D-|-0----5---|------3---|------5-|------3-|-


2nd Verse:

with Distortion
E-|-------------|-------------|-------------|------------------------|-
B-|-------------|-------------|-------------|------------------------|-
G-|------5/7--5-|------5/7--5-|------5/7--5-|------------------------|-
D-|-0-XX-5/7--5-|-0-XX-5/7--5-|-0-XX-5/7--5-|-0-XX-------------------|-
A-|-0-XX-3/5--5-|-0-XX-3/5--3-|-0-XX-3/5--3-|-0-XX-2-3-3-3-3-0-3-2-0-|-
D-|-0-XX--------|-0-XX--------|-0-XX--------|-0-XX-------------------|-
                                                . . . . . . . . . (.palm mute)
E-|-------------|-------------|-------------|------------------------|-
B-|-------------|--------=----|-------------|------------------------|-
G-|------5/7--5-|------5/7--5-|------5/7--5-|------------------------|-
D-|-0-XX-5/7--5-|-0-XX-5/7--5-|-0-XX-5/7--5-|-0-XX-------------------|-
A-|-0-XX-3/5--5-|-0-XX-3/5--3-|-0-XX-3/5--3-|-0-XX-2-3-3-3-3-0-3-2-0-|-
D-|-0-XX--------|-0-XX--------|-0-XX--------|-0-XX-------------------|-
                                                . . . . . . . . . (.palm mute)



Bridge: 

D-|-5-|-
A-|-5-|-   Sustain this chord after the chorus that is before the bridge
D-|-5-|-   

then 

E-|------------------|-
B-|------------------|-
G-|------------------|-
D-|-6665552222222222-|-  Play this 4 times
A-|-6665552222222222-|-
D-|-6665552222222222-|-
    ................
then

E-|------------------|-
B-|------------------|-
G-|-----------5/7--5-|-
D-|-666555222-x/x--x-|-  play this 4 times
A-|-666555222-3/5--3-|-
D-|-666555222--------|-
    .........
and then

E-|---------------------|------------------------|- 
B-|---------------------|------------------------|- Play 2 times 
G-|-------2----2--2--2--|------------------------|-  without the pick slide
D-|-6-5-3-5b---5b-5b-5b-|-6-5-3------------------|-  the second time
A-|-6-5-3---------------|-6-5-3-(pick slide \\\)-|-
D-|-6-5-3---------------|-6-5-3------------------|-

finally

E-|------------------------------|-------------------------|-
B-|------------------------------|-------------------------|-
G-|------------------------------|------------------9-9-9-9|-
D-|-0-0-6-6-5-0--0-0-12-12-12-12-|-0-0-6-6-5-0--0-0-9-9-9-9|-
A-|------------------------------|-0-0-6-6-5-0--0-0-7-7-7-7|-
D-|------------------------------|-0-0-6-6-5-0--0-0--------|-

E-|------------------------------|-------------------------|-
B-|------------------------------|-------------------------|-
G-|------------------12-12-12-12-|------------------9-9-9-9|-
D-|-0-0-6-6-5-0--0-0-12-12-12-12-|-0-0-6-6-5-0--0-0-9-9-9-9|-
A-|-0-0-6-6-5-0--0-0-10-10-10-10-|-0-0-6-6-5-0--0-0-7-7-7-7|-
D-|-0-0-6-6-5-0--0-0-------------|-0-0-6-6-5-0--0-0--------|-


Here's the solo played after the 3rd chorus:

E-|----------------------------------------------------------------
B-|-1/3-3-3-3--3-1/3-3-3-3--3-1/3-3-3-5--5-5/6-6/8-8-10-10-10-10br-

    Repeat this part until the end of the song
E-|-----------------------------------------------------------------------
B-|-15--15-15-15--15-15--15-15-15--15-15--15-15-15--15-15--15-15-15--15br-


Song setup:

Intro
1st Verse
PreChorus
Chorus
2nd Verse
PreChorus
Chorus
Bridge
First half of 1st Verse(clean)
Chorus(Solo)
Ending (same as intro)

Comments about this tab

Dani_Boy - 2006-04-05

Pretty good. A little off at some parts though. I'll give it a 4.


Gorgeous - 2008-09-17

Those

-12--
-12--
-10--

in the intro are actually octaves


Add a comment/correction

Complimentary Christian Ringtones
Dadamobile and CGR have teamed up to bring your favorite Christian artists right to your phone. Sign up today and get 10 complementary ringtones!
Tab Country
Did you know CGR has a sister site w/ country guitar tabs? Well we do! Its called Tab Country. It has a great archive with a lot of country tabs.
Rockin Tabs
Are you looking for a site that has rock guitar tabs? Then Rockintabs.com is the place for you. It is a budding site with many rock guitar tabs. Submit your tab today.
Tab Gallery
Tab Gallery has a compilation of christian, rock, and country tabs all in one place. Come visit us.