Guitar Tabs
song title    band name

Join Us Today!

Don't strum alone...
be a part of the largest online Christian music community. Browse thousands of guitar tabs and chat w/ musicians like yourself.


It's Free!

This tab has been rated a 2.00 out of 5 for accuracy. (1 vote)Sorry, but you must be logged in to rate this tab.
Click here to log-in, or you can click here to register.
(Registration is free)

All songs owned by corresponding publishing company. If you make copies of any song on this website, be sure to report your usage to CCLI.
Submitted by: skillet_rocks12

"Collide" by Skillet
Tuning: Drop Db (Db-Ab-Db-Gb-Bb-Eb)

Intro:
After the Keyboard/Bass intro

Eb-----------------------------------------
Bb-----------------------------------------
Gb-7--7-7--7-3--3-3--3---------------------
Db-7--7-7--7-3--3-3--3-3--3-3--3-2--2-2--2-
Ab-5--5-5--5-1--1-1--1-3--3-3--3-2--2-2--2-
Db---------------------3--3-3--3-2--2-2--2-

Eb-------------------------------------------
Bb-------------------------------------------
Gb-7--7-7--7-3--3-3--3-----------3/7--7-7--7-
Db-7--7-7--7-3--3-3--3-3--3-3--3-3/7--7-7--7-
Ab-5--5-5--5-1--1-1--1-3--3-3--3-1/5--5-5--5-
Db---------------------3--3-3--3-------------

Verses:

Eb----------------------------------------------- Play the whole thing 4 
Bb----------------------------------------------- times during the 1st verse
Gb-------------------------------------3-2-------
Db---7-5-8p7---7-5-8p7---7-5-8p7-----3-----3/5-5- Play the whole thing 5  
Ab---------------------------------3------------- times during the 2nd verse  
Db-7---------8---------0-------------------------


Chorus:

Eb------------------------------------------
Bb------------------------------------------
Gb-7--7-7--7--3--3-3--3---------------------
Db-7--7-7--7--3--3-3--3-3--3-3--3-2--2-2--2-
Ab-5--5-5--5--1--1-1--1-3--3-3--3-2--2-2--2-
Db----------------------3--3-3--3-2--2-2--2-

Eb-------------------------------------------
Bb-------------------------------------------
Gb-7--7-7--7-3--3-3--3-----------3/7--7-7--7-
Db-7--7-7--7-3--3-3--3-3--3-3--3-3/7--7-7--7-
Ab-5--5-5--5-1--1-1--1-3--3-3--3-1/5--5-5--5-
DB---------------------3--3-3--3-------------

Eb-------------------------------------------
Bb-------------------------------------------
Gb-7--7-7--5-3--3-3--3-----------3/5--5-5--5-
Db-7--7-7--5-3--3-3--3-3--3-3--3-3/5--5-5--5-
Ab-5--5-5--3-1--1-1--1-3--3-3--3-1/3--3-3--3-
Db---------------------3--3-3--3-------------

Eb-------------------------------------------
Bb-------------------------------------------
Gb-7--7-7--7-3--3-3--3-----------3/7--7-7--7-
Db-7--7-7--7-3--3-3--3-3--3-3--3-3/7--7-7--7-
Ab-5--5-5--5-1--1-1--1-3--3-3--3-1/5--5-5--5-
Db---------------------3--3-3--3-------------

Brige 

Sustain the last chord from the chorus
Then, after the little piano solo

Eb---------------------------
Bb---------------------------
Gb---------------------------    (Play this 16 times during the bridge)
Db--0--0-0--0-0--0-0--0--0-0-
Ab--0--0-0--0-0--0-0--0--0-0-
Db--0--0-0--0-0--0-0--0--0-0-
       . .  .    . .  .  . .  Palm mute chords with a dot under them

then
        In case you don't want to count all of these, there should be 32
Eb------------------------------------------------------------------
Bb------------------------------------------------------------------
Gb------------------------------------------------------------------
Db--0-0-0-0-0-0-0-0-0-0-0-0-0-0-0-0-0-0-0-0-0-0-0-0-0-0-0-0-0-0-0-0-
Ab--0-0-0-0-0-0-0-0-0-0-0-0-0-0-0-0-0-0-0-0-0-0-0-0-0-0-0-0-0-0-0-0-
Db--0-0-0-0-0-0-0-0-0-0-0-0-0-0-0-0-0-0-0-0-0-0-0-0-0-0-0-0-0-0-0-0-
    . . . . . . . . . . . . . . . . . . . . . . . . . . . . . . . .

The above is 4 measures played eighth notes
This is how the song is setup:
 Intro
 Verse
 Chorus
 Verse
 Chorus
 Bridge
 Chorus 

Comments about this tab

No comments/corrections found. Add your own

Complimentary Christian Ringtones
Dadamobile and CGR have teamed up to bring your favorite Christian artists right to your phone. Sign up today and get 10 complementary ringtones!
Tab Country
Did you know CGR has a sister site w/ country guitar tabs? Well we do! Its called Tab Country. It has a great archive with a lot of country tabs.
Rockin Tabs
Are you looking for a site that has rock guitar tabs? Then Rockintabs.com is the place for you. It is a budding site with many rock guitar tabs. Submit your tab today.
Tab Gallery
Tab Gallery has a compilation of christian, rock, and country tabs all in one place. Come visit us.