Guitar Tabs
song title    band name

Join Us Today!

Don't strum alone...
be a part of the largest online Christian music community. Browse thousands of guitar tabs and chat w/ musicians like yourself.


It's Free!

This tab has not yet been rated for accuracy.Sorry, but you must be logged in to rate this tab.
Click here to log-in, or you can click here to register.
(Registration is free)

All songs owned by corresponding publishing company. If you make copies of any song on this website, be sure to report your usage to CCLI.
Safe Assumption
by Hokus Pick
copyright 1995 VIA Records

I hope this is right...need to listen to the CD for timing and such.

Main/Verse Tab
|-0--0-0--0--0-------------------------------------------------
|-0--0h3--2--0-------------------------------------------------
|-0-h2p0--2--2-------------------------------------------------
|-2--2-2--2--2-------------------------------------------------
|-2--2-2--0--0-------------------------------------------------
|-0--0-0--0--0-------------------------------------------------

Chorus Tab
|-0---0-0---0--0---0--0-0--0--0--------------------------------
|-1p0h1-1p0-3--3---0--0h3--2--0---again------------------------
|-0---0-0---2--2---0-h2p0--2--2--------------------------------
|-2---2-2---0--0---2--2-2--2--2--------------------------------
|-3---3-3---0--0---2--2-2--0--0--------------------------------
|--------------------------0--0--------------------------------

|-0---0-0---0--------------------------------------------------
|-1p0h1-1p0-3--------------------------------------------------
|-0---0-0---2--------------------------------------------------
|-2---2-2---0--------------------------------------------------
|-3---3-3---0--------------------------------------------------
|--------------------------------------------------------------


Solo  
|--7-7--2----2----7-7--2---2---------------------------------
|--5-5--3----3----5-5--3---3---------------again-------------
|--5-5--0h2--0h2--5-5--0h2-0h2-------------------------------
|--x-x------------x-x----------------------------------------
|--3-3------------3-3----------------------------------------
|------------------------------------------------------------

Main Verse Tab Background
|------------------------------------------------------10/12---
|-8-8-7--5-5/8-8/10-10/12-10p8p7h8---5-5/8-8/10--10/12------12-
|--------------------------------------------------------------
|--------------------------------------------------------------
|--------------------------------------------------------------
|--------------------------------------------------------------

|-----------------------------12-10----------------------------
|-10-8--10-8---10-8--10-8--10-------12-8-10--8-----------------
|--------------------------------------------------------------
|--------------------------------------------------------------
|--------------------------------------------------------------
|--------------------------------------------------------------

Chorus

Chords:  Emin 022000  Cmaj7 x3x557

Please anyone fix mistakes and such

A second guitar plays a bunch of other stuff, this is the "rhythm"
tab I guess.

Comments about this tab

No comments/corrections found. Add your own

Complimentary Christian Ringtones
Dadamobile and CGR have teamed up to bring your favorite Christian artists right to your phone. Sign up today and get 10 complementary ringtones!
Tab Country
Did you know CGR has a sister site w/ country guitar tabs? Well we do! Its called Tab Country. It has a great archive with a lot of country tabs.
Rockin Tabs
Are you looking for a site that has rock guitar tabs? Then Rockintabs.com is the place for you. It is a budding site with many rock guitar tabs. Submit your tab today.
Tab Gallery
Tab Gallery has a compilation of christian, rock, and country tabs all in one place. Come visit us.