Guitar Tabs
song title    band name

Join Us Today!

Don't strum alone...
be a part of the largest online Christian music community. Browse thousands of guitar tabs and chat w/ musicians like yourself.


It's Free!

This tab has been rated a 5.00 out of 5 for accuracy. (7 votes)Sorry, but you must be logged in to rate this tab.
Click here to log-in, or you can click here to register.
(Registration is free)

All songs owned by corresponding publishing company. If you make copies of any song on this website, be sure to report your usage to CCLI.
Submitted by: Adam K

Demon Hunter-The Soldier's Song
From:The Triptych
Drop B Tuning B-F#-B-E-G#-C#

palm mute=..., etc.
p=pull off
v=vibrato
h=hammer on

Intro
Gtr. 1
B [-000-------------------000----------------]
F#[-000-8p7/0/8p7/0/8p7/0-000-8p7/0/8p7/0----]x2
B [-000-------------------000-------------5v-]
    ...                   ...
Then Gtr. 2
B [-000-------------------000----------------]
F#[-000-8p7/0/8p7/0/8p7/0-000-8p7/0/8p7/0----]
B [-000-------------------000-------------5v-]
    ...                   ...
E [-----------------------14/14/14/14/14/14/12/12/12/12/12/12-]
B [-000--------------------x--x--x--x--x--x--x--x--x--x--x--x-]
F#[-000-8p7/0/8p7/0/8p7/0-12-12-12-12-12-12-10-10-10-10-10-10-]
B [-000-------------------------------------------------------]
    ...

Verse 1
Both Guitars
B [-000-------------------000----------------]
F#[-000-8p7/0/8p7/0/8p7/0-000-8p7/0/8p7/0----]
B [-000-------------------000-------------5v-]
    ...                   ...
B [-000-------------------000-------------------]
F#[-000-8p7/0/8p7/0/8p7/0-000-8p7/0/8p7/0/8p7/0-]
B [-000-------------------000-------------------]
    ...                   ...
Then
B [-3----2--6-]
F#[-3----2--6-]
B [-3----2--6-]
(Play Verse 1 x3)

Pre-Chorus
B [-333333-333/333333-333-]
F#[-333333-333/333333-333-]x2
B [-333333-333/333333-333-]
    ...... ... ...... ...
Then
B [-555555-555/555555-555-]
F#[-333333-333/333333-333-]x2
B [-333333-333/333333-333-]

Chorus
Gtr. 2
B [-0----1----5----10----0----1----5---x3/3x3/3--]
F#[-0----1----5----10----0----1----5---x3/3x3/3--]
B [-0----1----5----10----0----1----5---x3/3x3/3--]
Gtr. 1
G#[-----------333/444------444/333------333--------------]
E [--------222-------333----------333------555/222---222-]
B [-000/333-------------555----------555----------333----]

G#[-----------333/444------444/333------333-x3/3x3/3-]
E [--------222-------333----------333-------x3/3x3/3-]
B [-000/333-------------555----------555----x3/3x3/3-]
Repeat Chorus

Interlude
E [-14/14/14/14/14/14/14/14/14/14/14/14/12/12/12/12/12/12/12/12/12/12/12/12]
B [--x--x--x--x--x--x--x--x--x--x--x--x--x--x--x--x--x--x--x--x--x--x--x--x]
F#[-12-12-12-12-12-12-12-12-12-12-12-12-10-10-10-10-10-10-10-10-10-10-10-10]

Verse 2
Gtr. 1
B [-000-------------------000----------------]
F#[-000-8p7/0/8p7/0/8p7/0-000-8p7/0/8p7/0----]
B [-000-------------------000-------------5v-]
    ...                   ...
B [-000-------------------000-------------------]
F#[-000-8p7/0/8p7/0/8p7/0-000-8p7/0/8p7/0/8p7/0-]
B [-000-------------------000-------------------]
    ...                   ...
Gtr. 2
B [-000-7p5/0/7p5/0/7p5/0-000-7p5/0/7p5/0----]
F#[-000-------------------000----------------]
B [-000-------------------000-------------5v-]
    ...                   ...
B [-000-7p5/0/7p5/0/7p5/0-000-7p5/0/7p5/0/7p5/0-]
F#[-000-------------------000-------------------]
B [-000-------------------000-------------------]
    ...                   ...
Then both guitars
B [-3----2--6-]
F#[-3----2--6-]
B [-3----2--6-]
(Play Verse 2 x2)

Pre-Chorus

Chorus

Bridge
Both Guitars
B [--0--]
F#[--0--]
B [--0--]
Then Gtr. 1
He gets kinda sloppy here.
F#[-8p7/0/8p7/0/8p7/0/8p7/0/8p7/0/8p7/0/8p7/0/8p7/0/8p7/0-]x4
Then 
Gtr. 1
F#[-8p7/0/8p7/0/8p7/0/8p7/0/8p7/0/8p7/0/8p7/0/8p7/0/8p7/0-]x4
Gtr. 2
B [-3/2/0--3/2/0-3/2/0--3/2/0-]
F#[-3/2/0--3/2/0-3/2/0--3/2/0-]x3
B [-3/2/0--3/2/0-3/2/0--3/2/0-]

B [-3/2/0--3/2/0-3/2/0-xxxxxx-]
F#[-3/2/0--3/2/0-3/2/0-xxxxxx-]
B [-3/2/0--3/2/0-3/2/0-xxxxxx-]
Then
Gtr. 2
B [-3/2/0--3/2/0-3/2/0--3/2/0-]
F#[-3/2/0--3/2/0-3/2/0--3/2/0-]x4
B [-3/2/0--3/2/0-3/2/0--3/2/0-]
Gtr. 1
B [-0000000000000000000000000-]
F#[-0000000000000000000000000-]x4
B [-0000000000000000000000000-]
    .........................
Then
Gtr. 2
B [-6/5/0--6/5/0-6/5/0--6/5/0-]
F#[-6/5/0--6/5/0-6/5/0--6/5/0-]x2
B [-6/5/0--6/5/0-6/5/0--6/5/0-]
Gtr. 1
B [-0000000000000000000000000-]
F#[-0000000000000000000000000-]x2
B [-0000000000000000000000000-]
    .........................
Gtr. 2
B [-3/2/0--3/2/0-3/2/0--3/2/0-]
F#[-3/2/0--3/2/0-3/2/0--3/2/0-]x2
B [-3/2/0--3/2/0-3/2/0--3/2/0-]
Gtr. 1
B [-0000000000000000000000000-]
F#[-0000000000000000000000000-]x2
B [-0000000000000000000000000-]
    .........................
Then
Gtr. 2
B [-3/2/0/000000--3/2/0-3/2/0/000--3/2/0-]
F#[-3/2/0/000000--3/2/0-3/2/0/000--3/2/0-]x4
B [-3/2/0/000000--3/2/0-3/2/0/000--3/2/0-]
          ......              ...
Gtr. 1
Solo
C#[-----------------------------5h6p5----8h10-]
G#[------------1h3/5/6p5/3/5h6/8-----8h10-----]
E [-2/2/2/3/3/3-------------------------------]
    ...........
C#[-17-----13h15/17-17-----13h15/17-16-----13h15/16-16--------]
G#[---18/15-----------18/15-----------18/15-----------18/15---]
E [--------------------------------------------------------14-]

C#[------------------------------------------------]
G#[-10---------10-10---------10-9---------9-9------]
E [---10--10h12-----10--10h12----10--10h12---10/7--]
B [-----12------------12-----------12------------7-]

C#[----------------------------------8v-]
G#[-----------------------5/5/5/8/8/8---]
E [------------5/5/5/7/7/7--------------]
B [-7/7/7/8/8/8-------------------------]
Then both guitars
E [-14/14/14/14/14/14/14/14/14/14/14/14/12/12/12/12/12/12/12/12/12/12/12/12]
B [--x--x--x--x--x--x--x--x--x--x--x--x--x--x--x--x--x--x--x--x--x--x--x--x]
F#[-12-12-12-12-12-12-12-12-12-12-12-12-10-10-10-10-10-10-10-10-10-10-10-10]

Chorus 2
Pause for awhile.
Then
B [-x3/3x3/3-]
F#[-x3/3x3/3-]
B [-x3/3x3/3-]
Then
Gtr. 2
B [-0----1----5----10----0----1----5---x3/3x3/3--]
F#[-0----1----5----10----0----1----5---x3/3x3/3--]
B [-0----1----5----10----0----1----5---x3/3x3/3--]
Gtr. 1
G#[-----------333/444------444/333------333--------------]
E [--------222-------333----------333------555/222---222-]
B [-000/333-------------555----------555----------333----]

G#[-----------333/444------444/333------333-x3/3x3/3-]
E [--------222-------333----------333-------x3/3x3/3-]
B [-000/333-------------555----------555----x3/3x3/3-]



Gtr. 2
B [-0----1----5----10----0----1----5---x3/3x3/3--]
F#[-0----1----5----10----0----1----5---x3/3x3/3--]
B [-0----1----5----10----0----1----5---x3/3x3/3--]
Gtr. 1
G#[-----------333/444------444/333------333--------------]
E [--------222-------333----------333------555/222---222-]
B [-000/333-------------555----------555----------333----]

G#[-----------333/444------444/333------333-x3/3x3/3-]
E [--------222-------333----------333-------x3/3x3/3-]
B [-000/333-------------555----------555----x3/3x3/3-]


Gtr. 2
B [-0----1----5----10----0----1----5---x3/3x3/3--]
F#[-0----1----5----10----0----1----5---x3/3x3/3--]
B [-0----1----5----10----0----1----5---x3/3x3/3--]
Gtr. 1
G#[-----------333/444------444/333------333--------------]
E [--------222-------333----------333------555/222---222-]
B [-000/333-------------555----------555----------333----]

G#[-----------333/444------444/333------333-x3/3x3/3-]
E [--------222-------333----------333-------x3/3x3/3-]
B [-000/333-------------555----------555----x3/3x3/3-]

Outro
Gtr. 2
B [-3/2/0/000000--3/2/0-3/2/0/000--3/2/0-]
F#[-3/2/0/000000--3/2/0-3/2/0/000--3/2/0-]x4
B [-3/2/0/000000--3/2/0-3/2/0/000--3/2/0-]
          ......              ...
B [-6/5/0/000000--6/5/0-6/5/0/000--6/5/0-]
F#[-6/5/0/000000--6/5/0-6/5/0/000--6/5/0-]x2
B [-6/5/0/000000--6/5/0-6/5/0/000--6/5/0-]
          ......              ...
B [-3/2/0/000000--3/2/0-3/2/0/000--3/2/0-]
F#[-3/2/0/000000--3/2/0-3/2/0/000--3/2/0-]x2
B [-3/2/0/000000--3/2/0-3/2/0/000--3/2/0-]
          ......              ...

Tabbed by Adam K




Comments about this tab

TG-da-JF - 2006-01-11

awesome tab!


crazyheadbanger - 2006-04-21

DUDE U DID AWESOME ON THIS TAB!!! DEMON HUNTER ROCKS!!!

ROCK ON!!!
guitar player,
victor


|)rink)v(tn|)ew - 2006-07-02

i, i, i feel unworrthy to look upon this tab...but i wont to learn it so...but Q 4 U...
for the inttro riff instead of going like"8p7\0" can one go like this"-8p7--
----7-
it just is ezr and you can hear the F# much better


iced slurpee - 2007-08-22

sweet man!!! i love the solo its the best ever


Hawk5 - 2007-08-30

Hey guys I'm new to playing this style,
how do you do a vibrato?


Add a comment/correction

Complimentary Christian Ringtones
Dadamobile and CGR have teamed up to bring your favorite Christian artists right to your phone. Sign up today and get 10 complementary ringtones!
Tab Country
Did you know CGR has a sister site w/ country guitar tabs? Well we do! Its called Tab Country. It has a great archive with a lot of country tabs.
Rockin Tabs
Are you looking for a site that has rock guitar tabs? Then Rockintabs.com is the place for you. It is a budding site with many rock guitar tabs. Submit your tab today.
Tab Gallery
Tab Gallery has a compilation of christian, rock, and country tabs all in one place. Come visit us.