Guitar Tabs
song title    band name

Join Us Today!

Don't strum alone...
be a part of the largest online Christian music community. Browse thousands of guitar tabs and chat w/ musicians like yourself.


It's Free!

This tab has been rated a 5.00 out of 5 for accuracy. (2 votes)Sorry, but you must be logged in to rate this tab.
Click here to log-in, or you can click here to register.
(Registration is free)

All songs owned by corresponding publishing company. If you make copies of any song on this website, be sure to report your usage to CCLI.
Submitted by: Adam K

Demon Hunter-Deteriorate
From:The Triptych
Drop B Tuning B-F#-B-E-G#-C#

Intro
E [-----7----------------------]
B [---5---5------12--------7---]
F#[-7----------9----9----5---5-]x4
B [----------9---------5-------]

Verse 1
E [-7------------]
B [-5----12----7-]
F#[-7-----9----5-]
B [-------9----5-]

E [-7---------------]
B [-5----12----7--7-]
F#[-7-----9----5--4-]
B [-------9----5--4-]

E [-7------------]
B [-5----12----7-]
F#[-7-----9----5-]
B [-------9----5-]

E [-7---------------]
B [-5----12----7--7-]
F#[-7-----9----5--4-]
B [-------9----5--4-]

Pre-Chorus
E [-----5------5--------4------4--------9------9--------7------7---]
B [---5---5------5----5---5------5----7---7------7----7---7------7-]x2
F#[-3--------3------2--------2------5--------5------5--------5-----]

Chorus
Gtr. 2
E [-12----------------]
B [-12----2----10-----]
F#[-10----2-----7-----]
B [-10----2-----7-----]
Then Gtr. 1
E [-14-14-16-16-12-]
B [--x--x--x--x--x-]
F#[-12-12-14-14-10-]
Then Gtr. 2
E [-12----------------]
B [-12----2-----9-----]
F#[-10----2-----7-----]
B [-10----2-----7-----]
Then Gtr. 1
E [-14-14-16-16-12-]
B [--x--x--x--x--x-]
F#[-12-12-14-14-10-]

Post-Chorus
E [-----5------5--------4----]
B [---5---5------5----5---5--]
F#[-3--------3------2--------]

Verse 2
E [-7------------]
B [-5----12----7-]
F#[-7-----9----5-]
B [-------9----5-]

E [-7---------------]
B [-5----12----7--7-]
F#[-7-----9----5--4-]
B [-------9----5--4-]

Pre-Chorus

Chorus

Bridge
E [-----------5------12---12---]
B [-3----5----5----2--x-2--x-2-]
F#[-3----5----3----2-10-2-10-2-]x3
B [-3----5---------2----2----2-]

B [-3----5-]
F#[-3----5-]
B [-3----5-]

Interlude
Gtr. 2
E [-----7----------------------]
B [---5---5------12--------7---]
F#[-7----------9----9----5---5-]x2
B [----------9---------5-------]
Then
E [-7------------]
B [-5----12----7-]
F#[-7-----9----5-]x2
B [-------9----5-]
Gtr. 1
E [-14-14-16-16-12-]
B [--x--x--x--x--x-]x2
F#[-12-12-14-14-10-]

Chorus 2
Gtr. 2
E [-12----------------]
B [-12----2----10-----]
F#[-10----2-----7-----]
B [-10----2-----7-----]
Then Gtr. 1
E [-14-14-16-16-12-]
B [--x--x--x--x--x-]
F#[-12-12-14-14-10-]
Then Gtr. 2
E [-12----------------]
B [-12----2-----9-----]
F#[-10----2-----7-----]
B [-10----2-----7-----]
Then Gtr. 1
E [-14-14-16-16-12-]
B [--x--x--x--x--x-]
F#[-12-12-14-14-10-]
Then Gtr. 2
E [-12----------------]
B [-12----2----10-----]
F#[-10----2-----7-----]
B [-10----2-----7-----]
Then Gtr. 1
E [-14-14-16-16-12-]
B [--x--x--x--x--x-]
F#[-12-12-14-14-10-]
Then Gtr. 2
E [-12----------------]
B [-12----2-----7-----]
F#[-10----2-----7-----]
B [-10----2-----7-----]
Then
B [-7---9--5-]
F#[-7--10--5-]
B [-7---9--5-]
Gtr. 1
E [-14--16--12-]
B [--x---x---x-]
F#[-12--14--10-]

I didn't put in Gtr.1 for the verses and 
the Pre/Post Choruses.

Tabbed by Adam K















Comments about this tab

Mosher for God - 2006-06-20

Hey man,

great job on this tab. I love this song it's my favorite on the Cd and now I can learn it. Keep up the good work man. God Bless,

Josh


demonhunter777 - 2006-09-20

Hey Adam,
small thing. On the interlude when both guitars start playing It goes:
Gtr.1:
E ---7-----12-----141416161212
B --5-5---9-9-----x-x-x-x-x-x
F#-7-----9--------121214141010
Gtr.2:
E -7-----12----7-7-7-7-7-7-7-7
B -5-----9-----5-5-5-5-5-5-5-5
F#-7-----9-----5-5-5-5-5-5-5-5
And that's pretty much all I found!
Sweet tab man!


churchpunk-92 - 2007-08-27

how do i tune drop b??


Add a comment/correction

Complimentary Christian Ringtones
Dadamobile and CGR have teamed up to bring your favorite Christian artists right to your phone. Sign up today and get 10 complementary ringtones!
Tab Country
Did you know CGR has a sister site w/ country guitar tabs? Well we do! Its called Tab Country. It has a great archive with a lot of country tabs.
Rockin Tabs
Are you looking for a site that has rock guitar tabs? Then Rockintabs.com is the place for you. It is a budding site with many rock guitar tabs. Submit your tab today.
Tab Gallery
Tab Gallery has a compilation of christian, rock, and country tabs all in one place. Come visit us.