Guitar Tabs
song title    band name

Join Us Today!

Don't strum alone...
be a part of the largest online Christian music community. Browse thousands of guitar tabs and chat w/ musicians like yourself.


It's Free!

This tab has been rated a 5.00 out of 5 for accuracy. (1 vote)Sorry, but you must be logged in to rate this tab.
Click here to log-in, or you can click here to register.
(Registration is free)

All songs owned by corresponding publishing company. If you make copies of any song on this website, be sure to report your usage to CCLI.
Submitted by: Adam K

Demon Hunter-Relentless Intolerance
From:The Triptych
Drop B Tuning B-F#-B-E-G#-C#

palm mute=..., etc.
b=bend
v=vibrato

Intro
Gtr. 1
E [-10-10-------10/10---]
B [--x--x-9/9/9--x/-x-9-]
F#[--8--8-9/9/9--8/-8-9-]x7
B [-------9/9/9-------9-]

E [-10-10-------10/10-----------]
B [--x--x-9/9/9--x/-x-9-0/5/7/0-]
F#[--8--8-9/9/9--8/-8-9-0/5/7/0-]x4
B [-------9/9/9-------9-0/5/7/0-]

E [-10-10-------10/10---------------------]
B [--x--x-9/9/9--x/-x-9-0/5/7/0/8/7/0/0---]
F#[--8--8-9/9/9--8/-8-9-0/5/7/0/8/7/0/0---]
B [-------9/9/9-------9-0/5/7/0/8/7/0/0---]
Then Gtr. 2
B [-0/0/0/0/0/0/0/0-]
F#[-0/0/0/0/0/0/0/0-]
B [-0/0/0/0/0/0/0/0-]
    ...............
Then Gtr. 1
B [-0/3/5/0/6/5/0-]
F#[-0/3/5/0/6/5/0-]
B [-0/3/5/0/6/5/0-]

Verse 1
Gtr. 2
B [-0/0-0/0-0-]
F#[-0/0-0/0-0-]
B [-0/0-0/0-0-]
    ... ... .
Then Gtr. 1
B [-0/5/7/0/8/7/0-]
F#[-0/5/7/0/8/7/0-]
B [-0/5/7/0/8/7/0-]
Then Gtr.2
B [-0/0/0/0/0/0/0/0-]
F#[-0/0/0/0/0/0/0/0-]
B [-0/0/0/0/0/0/0/0-]
    ...............
Then Gtr. 1
B [-0/3/5/0/6/5/0-]
F#[-0/3/5/0/6/5/0-]
B [-0/3/5/0/6/5/0-]
Play Verse 1 x4

Pre-Chorus
Gtr. 2
B [-0/0-0/0-0-]
F#[-0/0-0/0-0-]
B [-0/0-0/0-0-]
    ... ... .
Then Gtr. 1
B [-0/5/7-5/8/7--0/3/5-0/3/5b-]
F#[-0/5/7-5/8/7--0/3/5-0/3/5b-]x4
B [-0/5/7-5/8/7--0/3/5-0/3/5b-]
Then both guitars
B [-0/3/5-0/3/5b-0/3/5-0/3/5b-0/1/3/0/1/3/1/0-]
F#[-0/3/5-0/3/5b-0/3/5-0/3/5b-0/1/3/0/1/3/1/0-]
B [-0/3/5-0/3/5b-0/3/5-0/3/5b-0/1/3/0/1/3/1/0-]

Chorus
Both guitars
B [-8--3--3/5/1-----8--3--3/5/1--3-5/5-7-]
F#[-8--3--3/5/1-----8--3--3/5/1--3-5/5-7-]x2
B [-8--3--3/5/1-----8--3--3/5/1--3-5/5-7-]

Post-Chorus
Gtr. 1
E [-10-10-------10/10---------------------]
B [--x--x-9/9/9--x/-x-9-0/5/7/0/8/7/0/0---]
F#[--8--8-9/9/9--8/-8-9-0/5/7/0/8/7/0/0---]
B [-------9/9/9-------9-0/5/7/0/8/7/0/0---]

Verse 2
Gtr. 2
B [-0/0/0/0/0/0/0/0-]
F#[-0/0/0/0/0/0/0/0-]
B [-0/0/0/0/0/0/0/0-]
    ...............
Then Gtr. 1
B [-0/3/5/0/6/5/0-]
F#[-0/3/5/0/6/5/0-]
B [-0/3/5/0/6/5/0-]
Then Gtr. 2
B [-0/0-0/0-0-]
F#[-0/0-0/0-0-]
B [-0/0-0/0-0-]
    ... ... .
Then Gtr. 1
B [-0/5/7/0/8/7/0-]
F#[-0/5/7/0/8/7/0-]
B [-0/5/7/0/8/7/0-]
Play Verse 2 x4

Pre-Chorus

Chorus

Bridge
Both guitars
B [--0-------------]
F#[--0-let it ring-]
B [--0-------------]
Then
E [---------10-]
B [-0/0-0/0--9-]
F#[-0/0-0/0----]x7
B [-0/0-0/0----]
    ... ...
B [-0/0-0/0-]
F#[-0/0-0/0-]
B [-0/0-0/0-]
    ... ...
Stop.
Then 
E [---------10----------------]
B [-0/0-0/0--9--0/0-0-5/7/8/7-]
F#[-0/0-0/0-----0/0-0-5/7/8/7-]x4
B [-0/0-0/0-----0/0-0-5/7/8/7-]
    ... ...     ... .
Then Gtr. 2
E [---------10----------------]
B [-0/0-0/0--9--0/0-0-5/7/8/7-]
F#[-0/0-0/0-----0/0-0-5/7/8/7-]x4
B [-0/0-0/0-----0/0-0-5/7/8/7-]
    ... ...     ... .
Gtr. 1
G#[-------------]
E [-7------10/9-]x3 
B [--0--7/8-----]

G#[-----10v-]
E [-7-------]
B [--0------]

G#[-------------]
E [-7------10/9-]x3 
B [--0--7/8-----]

G#[---------------]
E [-7------10/9-7-] 
B [--0--7/8-------]

Chorus 2
Gtr. 2
B [-8--3--3/5/1-----8--3--3/5/1--3-5/5-7-]
F#[-8--3--3/5/1-----8--3--3/5/1--3-5/5-7-]
B [-8--3--3/5/1-----8--3--3/5/1--3-5/5-7-]
Then both guitars
B [-8--3--3/5/1-----8--3--3/5/1--3-5/5-7-]
F#[-8--3--3/5/1-----8--3--3/5/1--3-5/5-7-]
B [-8--3--3/5/1-----8--3--3/5/1--3-5/5-7-]
Then Gtr. 2
B [-8--3--3/5/1-----8--3--3/5/1--3-5/5-7-]
F#[-8--3--3/5/1-----8--3--3/5/1--3-5/5-7-]x2
B [-8--3--3/5/1-----8--3--3/5/1--3-5/5-7-]
Gtr. 1
E [-10--14--14/12/8----10--14--14/15/12-]
B [--x---x---x/-x/x-----x---x---x/-x/-x-]x2
F#[--8--12--12/10/6-----8--12--12/13/10-]

Ending
Gtr. 1
E [-10-10-------10/10---]
B [--x--x-9/9/9--x/-x-9-]
F#[--8--8-9/9/9--8/-8-9-]x2
B [-------9/9/9-------9-]

Tabbed by Adam K
























Comments about this tab

trmcello24 - 2006-04-18

sweet tab adam. thanks alot.


Add a comment/correction

Complimentary Christian Ringtones
Dadamobile and CGR have teamed up to bring your favorite Christian artists right to your phone. Sign up today and get 10 complementary ringtones!
Tab Country
Did you know CGR has a sister site w/ country guitar tabs? Well we do! Its called Tab Country. It has a great archive with a lot of country tabs.
Rockin Tabs
Are you looking for a site that has rock guitar tabs? Then Rockintabs.com is the place for you. It is a budding site with many rock guitar tabs. Submit your tab today.
Tab Gallery
Tab Gallery has a compilation of christian, rock, and country tabs all in one place. Come visit us.